#1
Hi..so basically the new version of the classic ABBA hit is great!I really love the harmonized guitar parts..and the other guitar parts as well..Anyone care to tab at least the intro for me?=)
You can search the song on youtube=)
Gear:

Ibanez JS 1000
Ibanez RGA42BK
Ibanez GRG 170 DX

BOSS DD7 Delay
Ibanez DS 7 Distortion
Dunlop Jimy Hendrix Wah

ENGL Fireball
Framus Cobra cab
Roland Cube 30
Last edited by Rokkec at Dec 1, 2008,
#3
Well..the main theme song itself.."Mamma Mia"=)
Sorry if It came a little messed up..The title was for the song all along=)
Gear:

Ibanez JS 1000
Ibanez RGA42BK
Ibanez GRG 170 DX

BOSS DD7 Delay
Ibanez DS 7 Distortion
Dunlop Jimy Hendrix Wah

ENGL Fireball
Framus Cobra cab
Roland Cube 30
Last edited by Rokkec at Dec 1, 2008,
#4
Also check out Paul Gilberts Dancin Queen cover!
Burny LG75-GR
Epi SG Pro 1966 Ltd Ed
PRS Angelus SE Custom

Korg Pandora effect unit (for practising)
Slash CryBaby
Blackstar HT-5
Korg RC2 Looooooper
#5
I checked it out..it rocks!..Paul Gilbert rocks! but we all know that:P..Still waiting for anyone to tab Mamma mia out though..
Gear:

Ibanez JS 1000
Ibanez RGA42BK
Ibanez GRG 170 DX

BOSS DD7 Delay
Ibanez DS 7 Distortion
Dunlop Jimy Hendrix Wah

ENGL Fireball
Framus Cobra cab
Roland Cube 30
#6
chord:
Daug: xx0332


(if you play it on piano play octaves)
e|------5------5-----5------6------6------6--------|
B|---3----3------3------3------3------3------------|
G|----------------------------------------------------| (4)
D|----------------------------------------------------|
A|-----------------------------------------------------|
E|------------------------------------------------------|

guitar: (there's 2 sounds: it could be from a 2nd guitar or a harmonizer effect)
e|---------------------------------------------------------------------------|
B|---------------------------------------------------------------------------|
G|-----------7---9/11--------9/11----9--11---9h11p9-7--------------|(2)
D|--7---9-------------------------------------------------------------------|
A|---------------------------------------------------------------------------|
E|---------------------------------------------------------------------------|

e|---------------------------------------------------------------------------|
B|-----------7--8/10------8/10----8---10----8h10p8--7--------------|
G|--7---9-------------------------------------------------------------------|(2)
D|---------------------------------------------------------------------------|
A|---------------------------------------------------------------------------|
E|---------------------------------------------------------------------------|


Verse:
D G D G
D Daug D Daug G A
G-D A G-D A

Chorus:
D C-G Em A (2)
D A Bm Fm# C-G Em A
D Bm C-G Em A
Last edited by crmrz at Dec 2, 2008,
#7
Thank you very much for the tab and chords for the rest of the song!=))
You helped a lot=)
Cheers!
Gear:

Ibanez JS 1000
Ibanez RGA42BK
Ibanez GRG 170 DX

BOSS DD7 Delay
Ibanez DS 7 Distortion
Dunlop Jimy Hendrix Wah

ENGL Fireball
Framus Cobra cab
Roland Cube 30