#1
Hi everyone, poppin' my thread posting cherry here. I was listening to some Tagically Hip earlier and came across Wild Mountain Honey. Ive been trying to figure out the mellow acoutic intro but no luck. Can someone PLEASE help me find this tab. or figure out that sweet sweet intro. Thanks fellow guitar playas.
#2
e|--3----5------1-----3---------------------0------------0--------------|
B|--3------------1------------5\--3--3--------3----3-------3-----3-----|
G|--5----5------3-----3------5\--3-3-----------3--------------3---------| (2)
D|---------------------------------------------------------------------------|
A|---------------------------------------------------------------------------|
E|--3------------3------------3---------------------------------------------|

e|------3-----5------6---10-----8\-----3---3--------------|
B|------3------------8---8-------5\-----1---1-------6------|
G|------5-----5-----0---0-------0------0---0-------5------|
D|----------------------------------------2---2-------3------|
A|----------------------------------------3---3-------3------|
E|---3-------------------------------------------------------|
Last edited by crmrz at Dec 2, 2008,