#1
Hey guys looking for a tab where the guitar sounds like the lyrics and I can't find one. Does anyone have a tab like this they would be willing to share?
#2
Sometimes it is worth looking at the powertabs/guitarpro files for vocal melodies. They're not always included but they're probably your best bet.
Quote by Mia (Pulp Fiction)
Why do we feel it's necessary to yak about bullsh*t in order to be comfortable?

That's when you know you found somebody special. When you can just shut the f*ck up for a minute, and comfortably share silence.

RateYourMusic
#3
I can help you with that. . . I actually was looking for a tab too that sounded like the lyrics so I had to find out how to play it by myself but i'm willing to share the tab:

E--------------------------
B--------------------------
G--/14--14--11--14--16
D--------------------------
A--------------------------
E--------------------------

E---------------------------------
B-------------/19--15--17--15
G---11--14---------------------
D--------------------------------
A--------------------------------
E--------------------------------


E------------------------------------------
B--/15--15-------------------------------
G-------------16--14--14--11--14--14
D------------------------------------------
A------------------------------------------
E------------------------------------------

Thats all I found out how to play, oh yeah when I play this I like to slide into each note and add a very slight bend to each note. Hope you like it