#2
Seeing the chords are easier than writing them down...

Standard 1/2 step down

Chords:
Dsus2: xx0230
Dsus2/Db: x4x230
Dsus2/B: x20230
Dsus2/A: x0x230
Dsus2/G:3xx230
Dsus2/F#:2xx230
Em7:020030
E7:020100
A7sus4: x02030
A11: 5x543x
Gm/A:5x533x
Dmaj7: x5767x
Dbm7b5: x4545x
F#7: 2x435x
Bm7: x2423x
Bbm7:6x666x
Am7:5x555x
D9: x5455x
Bb11:6x654x

Last Chorus chords:
Ebmaj7: x6878x
Em7b5: x5656x
G7: 3x546x
Cm7: x3534x
Bm7:x2423
Bbm7:x1312x
Abmaj7: 4x554x
Gm7: 3x333x
Fm7:1x111x
Bb11: x1111x


intro:
e|--------------0---------------------------0-----------------------------------------------0-----------|
B|----------3-----3-----------------3---------3-------------------3----------------3---------3--------|
G|------2-------------2---------2-----2---------2-------------2-----2---------2-----2---------2-----|
D|---0-------------------------------------------------------0-----------0--------------------------0---|
A|--------------------------4-------------------------0-2-------------------0---------------------------|
E|--------------------------------------------------------------------------------------------------------|

e|---------------0--------0-------------------0---------0---------------------|
B|------------3-----3----3-------------------3---------3---------------------|
G|--------2--------------2-------------------0---------0---------------------|
D|------------------------------------0----------------------------------------|
A|------------------------------0h2---------------0---------------------------|
E|---3-------------------2--------------0--------------------------------------|

Verse:
Dsus2-Dsus2/Db-Dsus2/B-Dsus2/A-Dsus2/G-Dsus2/F#-Em7-A7sus4 (2x)
Em7-Dsus2/F#-Em7-Dsus2/F#-Em7-A11-Gm/A

Chorus:
Dsus2-Dsus2/Db-Dsus2/B-Dsus2/A-Dsus2/G-Dsus2/F#-Em7-A7sus4
Dsus2-Dsus2/Db-Dsus2/B-Dsus2/A-Dsus2/G-Dsus2/F#-E7-Dsus2/G-Dsus2/F#-Em7-A7sus4
Dsus2/G-Dsus2/F#-Em7-A7sus4

2nd verse:
Dsus2-Dsus2/Db-Dsus2/B-Dsus2/A-Dsus2/G-Dsus2/F#-Em7-A7sus4
Dmaj7 Dbm7b5-F#7-Bm7 Bbm7-Am7-D9 Dsus2/G Dsus2/F# Em7 A7sus4
Em7-Dsus2/F#-Em7-Dsus2/F#-Em7-A11-Gm/A

chorus.....

Bridge:
Bbmaj7 Am7 Gm7 Am7 (3) Bbmaj7 Am7 A11 Bb11

chorus:
Ebmaj7 Em7b5 G7 Cm7 Bm7 Bbm7 Abmaj7 Gm7 Fm7 Bb11
Ebmaj7 Em7b5 G7 Cm7 Bm7 Bbm7 Abmaj7 Gm7 Fm7
Abmaj7 Gm7 Fm7 Bb11 (2x) Ebmaj7
Last edited by crmrz at Dec 3, 2008,
#3
love you! haha i'll try to figure out the fingerpickin and stuff for the rest of the song thakns!!