#1
Hey can you guys show me how to harmonise this please

e------------------------------------------------------------------------
B-------------------------------------------10-10----------------------
G--------------10-10--12-12--------------------1010---------------
D-----12-12---------------------12-12-------------------------------
A------------------------------------------------------------------------
D------------------------------------------------------------------------


Its in the key of Dminor I think.
#2
If it's in D minor, a really cool way of harmonizing in my opininion is using 3ths. Which means you take the note 2 notes further in the scale, in other words the second note of how you create a chord of these notes. In this case that would be:

e
B--------------------------------------13-13
G-----------14-14--15-15--------------------14
D--15-15--------------------15-15
A
D
Sloppy tab but you get the idea
Guitasr:
Cort KX-Custom
ESP LTD M-200FM
Amp:
Engl Powerball
Misc:
Focusrite Scarlet 2i4
#3
Quote by 13secondslater
Hey can you guys show me how to harmonise this please

e------------------------------------------------------------------------
B-------------------------------------------10-10----------------------
G--------------10-10--12-12--------------------1010---------------
D-----12-12---------------------12-12-------------------------------
A------------------------------------------------------------------------
D------------------------------------------------------------------------


Its in the key of Dminor I think.

You should really learn how to do this yourself - learn the notes on the fretboard, learn about intervals, learn the major scale and then you can learn how to harmonise.

At the moment you're trying to run before you can walk - if you want to learn how to harmonise then you need to learn all the other stuff that comes before. You're not going to learn anything by asking people to do stuff for you al the time.
Actually called Mark!

Quote by TNfootballfan62
People with a duck for their avatar always give good advice.

...it's a seagull

Quote by Dave_Mc
i wanna see a clip of a recto buying some groceries.


stuffmycatswatchontv.tumblr.com