#1
my band is covering this song, the tab on the site is definitely incomplete, and the main riff is slightly wrong, but its a start. There are three guitars in this song, a whole tab would be nice but if you have bits you want to throw in just post them in this thread.
Strat>Interstellar Overdriver>Little Big Muff>Supersonic Fuzz Gun>Crybaby Classic>Crybaby>VP Jr. (TU-2 tuner out)>Electric Mistress XO>RV-3>E-1005 w/ Footswitch>DD-6 (stereo out)>DL-4 w/ Expression Pedal>Stereo Tremolo>Headrush>Fender Deluxe 85(2x)
#2
Heres what weve got so far, thanks to caffiene wolf for starting it off

Intro

Guitar 1 (x4)
e----------------------------------------------------------
b----------------------------------------------------------
g----------------------------------------------------------
d----------------------------------------------------------
a----------------------------------------------------------
E-0-0-0-12-12-12-10-10-10-0-0-0-8-8-8-0-0-0-8-8-8-10-10-10-

Guitar 2 (x4)
e-0-0-0-0-0-0-0-0-0-0-0-0-0-0-0-0-0-0-0-0-0-0-0-0----------------
b-x-x-x-x-x-x-x-x-x-x-x-x-x-x-x-x-x-x-x-x-x-x-x-x----------------
g-9-9-9-9-9-9-9-9-9-9-9-9-9-9-9-9-9-9-9-9-9-9-9-9----------------
d----------------------------------------------------------------
a----------------------------------------------------------------
E----------------------------------------------------------------

Verse 1

Guitar 1 (x4)
e----------------------------------------------------------------
b----------------------------------------------------------------
g----------------------------------------------------------------
d----------------------------------------------------------------
a----------------------------------------------8-7-8-7-8-7-------
E-0-0-0-12-12-12-0-0-0-10-10-10-0-0-0-12-12-12-0-0-0-0-0-0-------

Guitar 2 (x4)
e--------------------------------------------------------------------------------------
b------11----------11---------8---------8--------10------10----------------------------
g--9----------9-----------9---------9---------9--------9--------10-9-10-9-10-9---------
d--------------------------------------------------------------------------------------
a--------------------------------------------------------------------------------------
E--------------------------------------------------------------------------------------

Chorus 1

Guitar 1 (x4)
e---------------------------------------------------------------------------
b---------------------------------------------------------------------------
g--5--5--5--7--7--7---------------------------------------------------------
d--5--5--5--7--7--7---------------------------------------------------------
a--3--3--3--5--5--5-------12h14-12h14-------12h14-12h14---------12h14--------
E-------------------0-0-0------0------0-0-0------0--------0-0-0------0-0-0--


Guitar 2 (x4)
e---------------------------------------------------------------------------
b---------------------------------------------------------------------------
g--5--5--5--7--7--7---------------------------------------------------------
d--5--5--5--7--7--7---------------------------------------------------------
a--3--3--3--5--5--5-------12h14-12h14-------12h14-12h14---------12h14-------
E-------------------0-0-0------0------0-0-0------0--------0-0-0------0-0-0--


Verse 2

Guitar 1 (x4)
e----------------------------------------------------------------
b----------------------------------------------------------------
g----------------------------------------------------------------
d----------------------------------------------------------------
a----------------------------------------------8-7-8-7-8-7-------
E-0-0-0-12-12-12-0-0-0-10-10-10-0-0-0-12-12-12-0-0-0-0-0-0-------

Guitar 2 (x1)
e--------------------------------------------------------------------------------------
b------11----------11---------8---------8--------10------10-------------8--------------
g--9----------9-----------9---------9---------9--------9--------10-9-10---10-9---------
d--------------------------------------------------------------------------------------
a--------------------------------------------------------------------------------------
E--------------------------------------------------------------------------------------
(x3)
e--------------------------------------------------------------------------------------
b------11----------11---------8---------8--------10------10----------------------------
g--9----------9-----------9---------9---------9--------9--------10-9-10-9-10-9---------
d--------------------------------------------------------------------------------------
a--------------------------------------------------------------------------------------
E--------------------------------------------------------------------------------------


Guitar 3 (x1) HEAVY VIBRATO
e---------------------------------------------------------------------------------------------
b---------------------8--------------8-----11--------8---------------------------------8----12
g9--------9--------9--------------9-----9------9--9-----9-------9--------9-------9--------9---
d---9--------9--------------9------------------------------9-------9--------9-------9---------
a------7--------7--------7-----7------------------------------7-------7--------7--------------
E----------------------------------------------------------------------------------------------
Chorus 2

Guitar 1 (x4)
e---------------------------------------------------------------------------
b---------------------------------------------------------------------------
G--5--5--5--7--7--7---------------------------------------------------------
D--5--5--5--7--7--7---------------------------------------------------------
A--3--3--3--5--5--5-------12h14-12h14-------12h14-12h14---------12h14-------
E-------------------0-0-0------0------0-0-0------0--------0-0-0------0-0-0--


Guitar 2 (x4)
e---------------------------------------------------------------------------
b-13-13-13-15-15-15---------------------------------------------------------
G-12-12-12-14-14-14-------14h16-14h16--------14h16-14h16--------14h16-------
D-10-10-10-12-12-12---------------------------------------------------------
A---------------------------------------------------------------------------
E-------------------0-0-0------0-------0-0-0------0--------0-0-0-----0-0-0--

Guitar 3
e---------------------------------------------------------------
b-------------------------------8--------------8----------------
g-9h11p9----------------9---------------9-----------------------
d--------12p11h12-11p9------------------------------------------
a---------------------------------------------------------------
E---------------------------------------------------------------

e---------------------------------------------------------------
b-------------------------------8--------------11b--------------
g-9h11p9----------------9---------------9-----------------------
d--------12p11h12-11p9------------------------------------------
a---------------------------------------------------------------
E---------------------------------------------------------------

e---------------------------------------------------------------
b-----------------------11--------11----------------------------
g-9h11p9---------------------------------9----------------------
d--------12p11h12-11p9----------------------------8-------------
a---------------------------------------------------------------
E---------------------------------------------------------------

e---------------------------------------------------------------
b-----------------------11---------------12b-------12-----------
g-9h11p9--------------------------9-----------------------------
d--------12p11h12-11p9------------------------------------------
a---------------------------------------------------------------
E---------------------------------------------------------------


We've got a little more figured out but I don't have the song to listen to at the moment, I'll post more later, additions, corrections, etc. welcome
Strat>Interstellar Overdriver>Little Big Muff>Supersonic Fuzz Gun>Crybaby Classic>Crybaby>VP Jr. (TU-2 tuner out)>Electric Mistress XO>RV-3>E-1005 w/ Footswitch>DD-6 (stereo out)>DL-4 w/ Expression Pedal>Stereo Tremolo>Headrush>Fender Deluxe 85(2x)