#1
Haven't been playing guitar that long and don't have a very good ear yet. I've looked all over and can't find tabs for Def Leppard's When Love and Hate Collide Original Demo tabs. What I really want to learn is the intro to it though.
Here's the song If anybody could make tabs on it , that would be awesome.
#2
Intro & verse:
e|------------2------------2---------------0------------------------2------------|
B|------------2------------2------------------0---------------------2------------|
G|--------4------------4-------------2-----------2------------4------------------|
D|---------------------------------------------------------------------------------|
A|------------------4-------------0-----------------------------------------------|
E|---0----------------------------------------------------0-----------------------|

chorus:
e|--------------0-------|-------------0--------------0-----------------0--------------0--------|
B|-----------------4----|--------------------4---------------------------------4-----------------|
G|---------4------------|---------4------4-----4------4----------4------4------4-------4-----|
D|----------------------|-------------------------------------------------------------------------|
A|---2------------------|-------------------------------------0---------------------------------|
E|----------------------|---0-------------------------------------------------------------------|

e|---------------0--------------0------------------0-----------------0-----------|
B|---------------------4-------------------------------------------------4---------|
G|---------4-------4-----4--------4----------4------4---------4---------------| (2)
D|---------------------------------------------------------------------------------|
A|----4-----------------------------------0-----------------2---------------------|
E|---------------------------------------------------------------------------------|


e|--------------0-----------------4----------------0-------------------0---------|
B|-----------------------4-------------------------------------------------4------|
G|----------4------4--------4-------4--------2-------2---------4---------------|
D|---------------------------------------------------------------------------------| (2)
A|-----------------------2-----------------0----------------4--------------------|
E|---0-----------------------------------------------------------------------------|

e|-----------------------------------------------------------------------------------------2----|
B|---------------0---------------0---------------0----------------0----------------------2---|
G|------------------------------------------------------------------------------------4--------|
D|---------2--------2-------2-----2--------2-------2---------------2-----------------------|
A|-----4-----------------2--------------0---------------------4------------------------------|
E|---------------------------------------------------------2--------------------0-------------|......
Last edited by crmrz at Dec 4, 2008,