#1
Hey all not sure if this is in the right spot but here it goes. I'm learning Fade to Black by Metallica and im just having a little trouble in the solo, ill tab the spot im havin trouble with.

|-15^12--12-15^12-14^12--12-15^12-14^12--12-|
|---------12---------------------12--------------------12----|
|----------------------------------------------------------------|
|----------------------------------------------------------------|
|----------------------------------------------------------------|
|----------------------------------------------------------------|


|-17^14--14-17^14--14-17^14--14-17^14--14-|
|---------15------------15------------15----------15----|
|-----------------------------------------------------------|
|-----------------------------------------------------------|
|-----------------------------------------------------------|
|-----------------------------------------------------------|

Just the part where it switches to 17^14 part, im having trouble getting that switch up to speed, any tips on fingerings or somethin. any help is appreciated.
#2
use ur pinkie finger on the 17th fret and pulloff to your index finger on the 14th, followed by your middle finger on the 15th and so forth. Also alternate picking
#4
ye using ur pinkie is a big one, especially with kirk hammett. If you read some of his interviews he stresses the need to make that part of your playing or else he says it gets in the way. Good luck
#6
dude if thats the ending part of the song then its

|--15h12p12-15p12-14p12--X3
|12-----------12-----------------

this is the next part
--17h14p17-X6
|15-----------

|--15h19p15-19p15-19p15--X5
|17-----------17-----------------


-17h21p17-X6
|19-----------

22^-22^-22^-22^-22^-22^-22^-22^

for exact tab download power tab software and download ptb tab for this song
#7
yeah it is the ending part and on power tab it doesnt have hammer on anywhere in that part btw. takes hardrckr pinky makes it much better