#2
Here's what I could make out of it. This is the part for the guitar that plays the main melody. It's not completely accurate, but it sounds close enough to the actual song. The three measures with the whole notes toward the bottom probably aren't right; I couldn't figure out which guitar was playing which part there, so I went for the easier one.


                          |-3-|
    W          W          E E E  E. S Q.    S S
||-----------|----------|--------------------------|
||o----------|----------|--------------------------|
||-----------|----------|---------------------8----|
||-----------|----------|-6-6-6-10----6----10------|
||o----------|----------|-----------6--------------|
||-----------|----------|--------------------------|


               |-3-|
  H     H      E E E E.  S Q.   S S    H     H
|------------|----------------------|-------------|
|-8----------|-------8----------8-9-|-11----14----|
|------10----|-8-8-8-------8--------|-------------|
|------------|----------10----------|-------------|
|------------|----------------------|-------------|
|------------|----------------------|-------------|


  |-3-|                                |-3-|
  E E E  E. S Q.    S S   H     H      E E E E.  S Q.   S S
|-----------------------|------------|-------------------------|
|-----------------------|-8----------|-------8----------8-9----|
|---------------------8-|------10----|-8-8-8-------8-----------|
|-6-6-6-10----6----10---|------------|----------10-------------|
|-----------6-----------|------------|-------------------------|
|-----------------------|------------|-------------------------|


   H     H       E.  S  Q   Q   Q     H..       S   S
|-------------|--------------------|---------------------|
|-11----14----|------------13--14--|-16--------14--16----|
|-------------|-12--13-15----------|---------------------|
|-------------|--------------------|---------------------|
|-------------|--------------------|---------------------|
|-------------|--------------------|---------------------|


   W           E.  S  Q   Q   Q     H..        S  S
|-----------|--------------------|---------------------|
|-13--------|------------13--14--|-16---------14-16----|
|-----------|-12--13-15----------|---------------------|
|-----------|--------------------|---------------------|
|-----------|--------------------|---------------------|
|-----------|--------------------|---------------------|


            |--3--|
   H.       E  E  E    H.       E.  S    H     Q   Q
|-------------------|-----------------|-----------------|
|-13-------11-13-14-|-16-------14--13-|-14--------------|
|-------------------|-----------------|-------13--15----|
|-------------------|-----------------|-----------------|
|-------------------|-----------------|-----------------|
|-------------------|-----------------|-----------------|


                                         |--3--|  |--3--|
   Q   E.  S  Q   Q     Q   Q   Q   Q    E  E  E  E  E  E  Q   Q
|--------------------|----------------|-----------------------------|
|-13--14--13---------|----------------|-------13----13-14-16--13----|
|------------15--13--|-13--12--10--12-|-13-15----15-----------------|
|--------------------|----------------|-----------------------------|
|--------------------|----------------|-----------------------------|
|--------------------|----------------|-----------------------------|


   Q   E.  S  Q   Q     W             W
|--------------------|-------------|-------|
|-14--13-------------|-------------|-------|
|---------15-13--15--|-13----------|-------|
|--------------------|-------------|-------|
|--------------------|-------------|-11----|
|--------------------|-------------|-------|


                                           H.=H
                   |-3--|  |--3--|
   W           Q   E E  E  E  E  E  Q       H     H
|-----------|---------------------------||-------------|
|-----------|-----11-9-11-13-11-13-14--o||-------------|
|-----------|-13------------------------||-------------|
|-----------|---------------------------||-------------|
|-10--------|--------------------------o||-11----10----|
|-----------|---------------------------||-------------|


  H    H
|-----------*|
|-----------*|
|-----------*|
|-----------*|
|-8----6----*|
|-----------*|



Duration Legend
---------------
W - whole; H - half; Q - quarter; E - 8th; S - 16th; T - 32nd; X - 64th; a - acciaccatura
+ - note tied to previous; . - note dotted; .. - note double dotted
#3
Thanks. It's generally right, but in some places has some missing notes. I was abe to figure out most of them though. Very helpful