#1
tab request: Lucky Star by Joana Zimmer

THIS IS A GREATSONG.
i can't find a tab anywhere.
I am hoping some one knows how to play this,
i love this song so much.

THANS
#2
tuning: standard with CAPO on 1st fret


INTRO:

1st guitar:
e|---/5----6--5---3------3---6---5---3---1------------------------------|
B|---/6----8--6---3------5---5---6---5---3------------------------------|
G|---------------------------------------------------------------------------|
D|---------------------------------------------------------------------------|
A|---------------------------------------------------------------------------|
E|---------------------------------------------------------------------------|

e|---/5------6--5---3--1------1---3--1---0----1--0-----------|
B|---/6------8--6---5--3------3-----------2-----------3--------|
G|------------------------------------------------------------------|
D|------------------------------------------------------------------|
A|-------------------------------------------------------------------|
E|-------------------------------------------------------------------|


2nd guitar:
e|-----------------1---------------------------------0--------------1---------|
B|-------------3---------------------3-----------2-------------3--------------|
G|--------2-----------------------3-----------0-------------2----------------|
D|---0----------------------3h5-------------------------0-------------------|
A|-----------------------------------------0----------------------------------|
E|------------------------3---------------------------------------------------|

e|--------------1----------------------------------------1---------------0-------------1----|
B|----------3--------------------------3-------------3---------------2-------------3-------|
G|------2-------------------------3--------------3---------------0--------------2----------|
D|---0---------------------3h5----------------------------------------------0--------------|
A|-------------------------------------------1----------------0-------------------------------|
E|---------------------3----------------------------------------------------------------------|


verse:
Dm Gm A7 Dm
Dm Gm Bb A7
Dm Gm A7 Dm (2)
Gm A7 Dm G Bb A7

Chorus:
Dm Gm A7 Dm
Dm Gm Bb A7
Dm Gm C F
Bb A7

intro...

Short verse:
Dm Gm A7 Dm (2)
Gm A7 Dm G Bb A7

chorus...intro...

Gm A7 Dm G Bb A7

chorus....