#1
Looking for tab or even sheet music for "20th Century Blues", by Robin Trower. I find it very odd since its the title song for his 20th Century Blues album and one of his more popular songs. I'm really looking for the main hook for now and have tried to figure it out on my own, which I can usually do but there is just something I'm missing. Any help would be greatly appreciated.
Last edited by shunut at Dec 7, 2008,
#2
I just found a live version, so I don't know if this what you want....

drop D tuning

e|---------------------------------------------------------------------------|
B|---------------------------------------------------------------------------|
G|---------------------------------------------------------------------------|(2)
D|----------------------------3----------------------------------3~--------|
A|----------------0---3--5------5p3-----------------0--3--5-------------|
D|-----0--3--4----------------------------0--3--4-------------------------|

e|--------------------------------------------------|
B|--------------------------------------------------|
G|--------------------------------------------------|
D|---555-xx5--xx5--3----555--xx5--3--------|
A|---555-xx5--xx5--------555--xx5-----------|
D|--------------------------------------------------|

e|---------------------------------------------------------------------------|
B|---------------------------------------------------------------------------|
G|---------------------------------------------------------------------------|
D|----------------------------3----------------------------------3~--------|
A|----------------0---3--5------5p3-----------------0--3--5-------------|
D|-----0--3--4----------------------------0--3--4-------------------------|

e|-----------------------------------------------------|
B|------------------------------------------------------|
G|-------------------------------------------7-----------|
D|---7xx7xx7--xx7--xx----7-8--9-9--------9~-------|
A|---7xx7xx7--xx7--xx----------------------------------|
D|---------------------------------------------------------|

e|----------------------------------------------------|
B|-----------------------------------------------------|
G|-----------------------------------------------------|
D|----------------------------3------------------------|etc..
A|----------------0---3--5------5p3---------------|
D|-----0--3--4-------------------------------------|
#3
Perfect man, thanks! I think I was missing the drop D, which I have a tendancy to do. For some reason it just seems to slip my mind.

Thanks again.