#1
Just like Name thar Riff, But whoever Wins gets to do the next tab


Here's the first one. I'll verify When Someone WIns.

If no-one figures it out soon then Hints will be posted.


  0:00  Piano Intro 0:20  Band Enters                           0:44   clean tone
|---------------||----------|----------|-------3--|-3------||----------
|---------------||*-3-------|-1--------|-------3--|-3-----*||---7-8-10-
|---------------||--2-------|-2--------|-2-----0--|-5------||----------
|---------------||--0-------|-2--------|-0-----0--|-5------||----------
|---------------||*---------|-0--------|-0--------|-3-----*||----------
|---------------||----------|----------|-------3--|-3------||----------

                  *                   let ring
|-10---|-8-7-8-8----|---------------|-0------|--------10---|-12-10-12----
|------|----------8-|-7-8-10--------|--------|-7-8-10------|----------13-
|------|------------|--------7-9-11-|---7----|-------------|-------------
|------|------------|---------------|--------|-------------|-------------
|------|------------|---------------|--------|-------------|-------------
|------|------------|---------------|--------|-------------|-------------
                  * Ghost note

                                              1:07  Bassline is also 
						    reflected here  
						    let ring throughout
|---|---------------|---------------|-------|----------------|----------
|---|-7-8-10--------|---------------|-------|------3---------|------3---
|---|--------7-9-11-|-12-14-11------|-------|----0---0-----0-|----0---0-
|---|---------------|----------12---|-------|----------------|----------
|---|---------------|---------------|-------|------------0---|-2--------
|---|---------------|---------------|-------|-3--------------|----------

REMEMBER TO POST THE TAB PART IN CODE! IF YOU DON'T IT WON'T WORK!
#3
Quote by Survivalism
I think we've had enough of these.


This. He's right, enough is ENOUGH.
funkyducky


Icing happen when de puck come down, BANG, you know,
before de oder guys, nobody dere, you know.
My arm go comme ça, den de game stop den start up.

Quote by daytripper75
Get To Da Choppa!