Page 3 of 5
#81
Quote by Xiaoxi
I'm really curious about the Sleigh Ride medley. Is that your own orchestration or is that a clip from somewhere. If it's your own: how the HELLLL did you get such a good orchestral sample?


MIDI file from the internet. I made some edits in the arrangement, a couple of new instruments, and choir. The synths are Edirol Orchestral HQ (which are sampled orchestral synths) and magnus choir (which is a hybrid synth).
VENUSIAN
FB SC BC TW
Patterns In The Ivy present ethnicity on an intriguing and dedicated level. ~Ambient Exotica
A mesmeric melange of yearning voice, delicate piano and carefully chosen samples. ~Lost Voices
#82
Quote by rabidguitarist
MIDI file from the internet. I made some edits in the arrangement, a couple of new instruments, and choir. The synths are Edirol Orchestral HQ (which are sampled orchestral synths) and magnus choir (which is a hybrid synth).

Damn, I need to get on that.

...modes and scales are still useless.


Quote by PhoenixGRM
Hey guys could you spare a minute to Vote for my band. Go to the site Search our band Listana with CTRL+F for quick and vote Thank you .
Quote by sam b
Voted for Patron Çıldırdı.

Thanks
Quote by PhoenixGRM
But our Band is Listana
#84
Downloaded now, just having a listen

,--.-'-,--.
\ /-~-\ /
/ )' a a `( \
( ( ,---. ) )
THIS WAS MEANT TO BE A PIG
\ `(_o_o_)' /
\ `-' /
| |---| |
[_] [_]
#85
thx dudes!!

Happy Xmas Everyone!
Quote by wiggyisgreat
Slooj, I'd bang you so hard.


••The Robin Trower Fans Group••
PM me to join!
#86
d/ling now.

cheers to everyone involved

and ofc Merry Christmas!

edit: listening now...
"And after all of this, I am amazed...

...that I am cursed far more than I am praised."
Last edited by Sol9989 at Dec 8, 2008,
#87
THank you to all involved, downloading now
WARUM TUT ES WEH, WENN ICH PINKLE?!
Quote by goest
I'm going to take this opportunity to initiate my campaign to replace the phrase "Taking a shit" with "Busting a grumpy."


Quote by Axelfox
Disregard that,i suck cocks.
#89
Jingel Bells is soo fucking awesome. haha
Great job guys.
We ain't pushing the boundaries, we're blowing them up.
We ain't trying to expand the scene, we want the scene to erupt.


#90
It's awesome...
Great job to everyone who worked on it

Merry Christmas!
I'm not a Bible-thumper anymore. Realized I had a brain in '09.

I like guitars, running, and math.
#93
Haha, I'm glad people like my Jingle Bells
Too bad it's too late to resubmit, I'm redoing half the guitar work and having a friend do vocals for it soon
#96
I really need to stay more up to date on UG stuff. I would've put together a jazzy version of one of the songs with some of the guys in Jazz.

Oh well, maybe next time.

I second the fact that Fairytale of New York is great. apothecarrie & rabidguitarist have completely different voices, but I love the way that they fit together in the parts that they sing as a duet.
Yellowknife, Northwest Territories
#97
I'm listening right now, the intro was awesome but some of the songs with acoustic guitar were a tad bit gay for my taste
Now I'm listen to steel skins and I really like its pretty relaxing.
The Jingle bells is really good too.
Fairytale of New York is okay but I don't like it that much.
I absolutely drummer boy of doom XD
Have yourself a merry little Christmas was amazing just beautiful.

And the outro medley is hilarous XD
Quote by Stress Cow
You know you're fucked up when the pit thinks you're a sick bastard.
#98
Can i get the tabs for the have yourself a merry little christmas?
Quote by Stress Cow
You know you're fucked up when the pit thinks you're a sick bastard.
#99
This is friggin' awesome... Great work, guys! :3
I sued Delta Airlines, 'cause they sold me a ticket to New Jersey, I went there, and it SUCKED.
#100
Quote by theocao
Can i get the tabs for the have yourself a merry little christmas?

Sorry, I only have my arrangement in standard notation. If you can read it, I'll put it up.

...modes and scales are still useless.


Quote by PhoenixGRM
Hey guys could you spare a minute to Vote for my band. Go to the site Search our band Listana with CTRL+F for quick and vote Thank you .
Quote by sam b
Voted for Patron Çıldırdı.

Thanks
Quote by PhoenixGRM
But our Band is Listana
#101
woah I totally forgot about this glen I was supposed to do a track but I got really caught up in giving lessons and stuff I totally blanked, maybe next year. PM me when the next album comes around I'm sure to haver something for it, naybe my 9 minute something prog-song
'08 Gretsch White Falcon
'98 Fender USA Deluxe Tele
'79 Greco Les Paul Standard
Airline Stratotone Crafter GAE8

A bunch of funky pedals

Handwired 50 Watt Plexi Lead Clone w/ Orange 4x12
#102
Quote by druz15_UG
woah I totally forgot about this glen I was supposed to do a track but I got really caught up in giving lessons and stuff I totally blanked, maybe next year. PM me when the next album comes around I'm sure to haver something for it, naybe my 9 minute something prog-song

we're starting the next one already, it's in my sig.
#103
Thank you very much for this!

It really was one hell of a treat to end my day


the opning to Jingle Bells made me laugh out loud, not even kidding.


Awesome work to everyone who contributed!
Quote by sluffinator
Yeh this guy knows his ****... just listen to him XD


Quote by ScreamingCheeto
NaivexLi is anything but naive. His post was a pretty good source of info.


Thanks

Quote by MightyAl

Pro tip, kids - girls are NOT impressed by your blood.
#104
ftw, I'm getting this shiz!
BACK LIKE A HEART ATTACK
#105
Quote by Xiaoxi
Sorry, I only have my arrangement in standard notation. If you can read it, I'll put it up.


It's possible to put that into Guitar Pro, and get the tab that way. If you like, I'd be happy to do that for you, to save you the bother.

I'm just on track 3 now. Everything sounds good so far.
#106
John, your voice sounds really good on a Fairytale of New York. Your voices did go out of sync at times, but that's expected when you're layering
I was waiting for Apothecarrie to belt out the chorus but she toned it down


Overall, great album.
RULE BRITANNIA
#108
"and the angel gabriel said unto mary, thou shall have a christmas album and that album shall be the album of God"


great work guys
My Deviantart

Great Minds Think Alike
Quote by Son.Of.TheViper
You sigged me, AND had an idea the same as mine!
I like you.

About my Lady Gaga/Pokemon parody
Quote by Mike50227
XD not bad

Quote by ExOblivione
You're my hero.

Quote by myevilside
I must say, i love it!
#110
Quote by Cobain_Is_King
John, your voice sounds really good on a Fairytale of New York. Your voices did go out of sync at times, but that's expected when you're layering
I was waiting for Apothecarrie to belt out the chorus but she toned it down


Overall, great album.

Soz bbz.
--------
#111
Quote by apothecarrie
Soz bbz.

It's k.


I enjoyed it very much
Edit: Fairytale of New York just came on Radio 1.
RULE BRITANNIA
Last edited by Cobain_Is_King at Dec 9, 2008,
#112
Quote by Minkaro
It's possible to put that into Guitar Pro, and get the tab that way. If you like, I'd be happy to do that for you, to save you the bother.

If you want to transcribe it, you're welcome to!

I don't have Guitar Pro or any other tablature programs...and you know my general disdain for tabs

Here's the image file of my arrangement. The roman numerals indicate the general positions (referring to which fret the index finger would be placed) and the circled numbers indicate the general lowest string played in the chords.

http://rapidshare.com/files/171768563/Xiaoxi_-_HYAMLC.zip.html

...modes and scales are still useless.


Quote by PhoenixGRM
Hey guys could you spare a minute to Vote for my band. Go to the site Search our band Listana with CTRL+F for quick and vote Thank you .
Quote by sam b
Voted for Patron Çıldırdı.

Thanks
Quote by PhoenixGRM
But our Band is Listana
#113
Alrighty then, I've tabblerised Have Yourself A Merry Little Christmas. Just a few points.

1) You might have to fiddle about with a few of the chords, to make the fingering slightly more doable by human hands. I've done most of it, but I've probably missed a few.
2) Never again!

  Have Yourself A Merry Little Christmas     


                                       Xiaoxi
Track 1


           ^  ^  ^  ^  ^  ^   
     E  E  E  E  E  E  E  E   
E||--------------------0--3--|
B||-----------0--1--2--1--4--|
G||-----0--2-----2--1--0--4--|
D||--------4--3--2--1--0--3--|
A||-----------------------4--|
E||--------------------------|


  Q    Q    Q    Q     
-------0----3----8----|
--1----1----3----8----|
--0----0----2----7----|
--2----0----2----7----|
--3-------------------|
----------------------|


  E  E  E  E  Q    Q     
--3--1--0---------------|
--1-----0--3--1----3----|
--2-----------2----1----|
--0-----3-----3----3----|
-------------------2----|
--------4-----3---------|


  Q    Q    Q    Q       H        H         
-------0----3----8----|--3--------3--------|
--1----1----3----8----|--1--------3--------|
--0----0----2----7----|--2--------4--------|
--2----0----0----7----|--0--------3--------|
--3-------------------|--------------------|
----------------------|--------------------|


  Q    Q    Q     Q     
--0----3----8----12----|
--0----1----8----13----|
--0----0----7----12----|
-------0----7----------|
--3--------------10----|
-----------------------|


   E  E  E  E  Q    Q     
---7--8--7--5--3----1----|
--10-----5-----6----0----|
---9-----7-----4----0----|
---------5---------------|
---8---------------------|
-------------------------|


  Q    Q    Q    Q     
--0----L----0----L----|
--3----L----1----L----|
--1----L----0----L----|
--2----2--------------|
------------0----0----|
----------------------|


  Q    Q    Q    Q     
--0----L----0----L----|
--1----L----0----L----|
----------------------|
--4----L----3----L----|
--5----5--------------|
------------3----3----|


  Q    Q    Q    Q     
-------0----3----8----|
--1----1----3----8----|
--0----0----2----7----|
--2----0----2----7----|
--3-------------------|
----------------------|


  E  E  E  E  Q    Q     
--3--1--0---------------|
--1-----0--3--1----3----|
--2-----------2----1----|
--0-----3-----3----3----|
-------------------2----|
--------4-----3---------|


  Q    Q    Q    Q       H        H         
-------0----3----8----|--3--------3--------|
--1----1----3----8----|--1--------3--------|
--0----0----2----7----|--2--------4--------|
--2----0----2----7----|--0--------3--------|
--3-------------------|--------------------|
----------------------|--------------------|


  Q    Q    Q     Q     
--0----3----8----12----|
--0----1----8----13----|
--0----0----7----12----|
-------0----7----------|
--3--------------11----|
-----------------------|


   E  E  E  E  Q    Q     
---7--8--7--5--3----1----|
--10-----5-----6----0----|
---9-----7-----4----0----|
---------5---------------|
---8---------------------|
-------------------------|


  H        H           H        H         
--8--------8--------|--8--------8--------|
--8--------7--------|--6--------5--------|
--9--------8--------|--7--------6--------|
--7--------6--------|--5--------4--------|
--------------------|--------------------|
--------------------|--------------------|


  Q    Q    Q     Q     
--0----3----8----12----|
--0----1----8----13----|
--0----0----7----12----|
-------0----7----------|
--3--------------11----|
-----------------------|


   E  E  E  E  Q    Q     
---7--8--7--5--4----7----|
--10-----5-----3----6----|
---9-----7-----4----7----|
---------5-----2----6----|
---8---------------------|
-------------------------|


  H        H           H        H         
--8--------8--------|--7--------7--------|
--8--------7--------|--5--------5--------|
--9--------8--------|--5--------5--------|
--7--------6--------|--5--------6--------|
--------------------|--------------------|
--------------------|--------------------|


  Q    Q    Q    E  E   
--8----8----8----7--5--|
--7----L----6----------|
--9----L----8----------|
--7----L----7----------|
-----------------------|
-----------------------|


  E  E  H        E  E   
--3--5--7--------3--5--|
--0--L--5--------4-----|
--7--L--7--------3-----|
--2--L--5--------------|
-----------------------|
-----------------------|


  E  E   Q     Q    Q     
--7--8--10----10---------|
--8--L---8-----8----3----|
--7--L--10-----9----2----|
--7--L---9-----7----4----|
-------------------------|
-------------------------|


  H        H           Q    Q    Q    Q     
--7--------7--------|-------0----3----8----|
--5--------5--------|--1----1----3----8----|
--5--------5--------|--0----0----2----7----|
--5--------6--------|--2----0----2----7----|
--------------------|--3-------------------|
--------------------|----------------------|


  E  E  E  E  Q    Q     
--3--1--0---------------|
--1-----0--3--1----3----|
--2-----------2----1----|
--0-----3-----3----3----|
-------------------2----|
--------4-----3---------|


  Q    Q    Q    Q       H        H         
-------0----3----8----|--3--------3--------|
--1----1----4----8----|--1--------6--------|
--0----2----2----8----|--2--------4--------|
--2----3----3----6----|--0-----------------|
--3-------------------|-----------4--------|
----------------------|--------------------|


  Q    Q    Q     Q     
--0----3----8----12----|
--0----1----8----13----|
--0----0----7----12----|
-------0----7----------|
--3--------------11----|
-----------------------|


   E   E   E  E  Q     Q     
--13--12--10--8--7----10----|
--12------10-----6----10----|
--14------10-----7----10----|
--12-------9-----6-----9----|
----------------------------|
----------------------------|


   Q    Q    Q    Q     
---8----2----1----0----|
--10----1----1----0----|
--12----L----L----L----|
--10----L----L----L----|
---0----L----L----L----|
-----------------------|


  Q    Q    Q     Q     
--0----L----L----12----|
--1----0----0----------|
--1----0---------------|
------------4----------|
-----------------------|
--0----L----L-----L----|


   Q    Q    Q     Q     
--12----1----5-----8----|
--10----1----5-----9----|
--10----0----5-----8----|
--10---------3----10----|
-------------------8----|
------------------------|


   E   E  E  E  Q    Q     
--12--10--8--7--5----7----|
--10---L--8-----6----8----|
--10---L--7-----5----7----|
--12---L--7-----5----7----|
---------------------8----|
--------------------------|


  Q    Q    Q    Q     
--3----L--------------|
--3----L----1----L----|
--2----L----0----L----|
--2----2----1----1----|
----------------------|
----------------------|


  Q    Q    Q    Q     
--3----L--------------|
--1----L----1----L----|
--2----L--------------|
--0----0----3----L----|
------------4----4----|
----------------------|


  E  E  Q    E  E  Q     
--0--0--0----0--0--0----|
--1--L--L----1--L--L----|
--0--L--L----2--L--L----|
--2--L--L----3--L--L----|
--0--L--L---------------|
------------------------|


  E  E  Q    Q    Q       W                  
--0--3------------0----|--7----------------||
--0--L--1----3----L----|--7----------------||
--1--L--L----L----L----|--9----------------||
--0--L--L----L----L----|--7----------------||
--1--L--L----L----L----|--7----------------||
-----------------------|--8----------------||
#114
Quote by Cobain_Is_King
John, your voice sounds really good on a Fairytale of New York. Your voices did go out of sync at times, but that's expected when you're layering
I was waiting for Apothecarrie to belt out the chorus but she toned it down


Overall, great album.


All my fault- My mic isn't working properly, so I only managed to get a couple of takes. For that reason, any problems with timing or out of tune harmony in the vocals are because of me.
VENUSIAN
FB SC BC TW
Patterns In The Ivy present ethnicity on an intriguing and dedicated level. ~Ambient Exotica
A mesmeric melange of yearning voice, delicate piano and carefully chosen samples. ~Lost Voices
#115
Wow this really is great
It's a lot more tasteful than expected


last christmas just came on
you have a great voice rabidguitarist

many thanks to everyone who contributed

and special thanks to rabid: http://axonnsd.org/WebData/FlashFun/flash/thankyou.swf
Quote by guitarhero_764
I think you need to stop caring what people think about it. I stayed home all day today and masturbated like 5 times. Fucking blast.

Ibanez ATK300 ◈ Sansamp VT Bass ◈ EHX Nano Small Stone ◈ Hartke LH500 ◈ Ashdown/Celestion 115
#116
Quote by ScottB.
Wow this really is great
It's a lot more tasteful than expected


last christmas just came on
you have a great voice rabidguitarist

many thanks to everyone who contributed

and special thanks to rabid: http://axonnsd.org/WebData/FlashFun/flash/thankyou.swf


I'm up to 1708. I'm going to keep watching to see if it actually goes to one million.

And thanks.
VENUSIAN
FB SC BC TW
Patterns In The Ivy present ethnicity on an intriguing and dedicated level. ~Ambient Exotica
A mesmeric melange of yearning voice, delicate piano and carefully chosen samples. ~Lost Voices
#117
Quote by Minkaro
Alrighty then, I've tabblerised Have Yourself A Merry Little Christmas. Just a few points.

1) You might have to fiddle about with a few of the chords, to make the fingering slightly more doable by human hands. I've done most of it, but I've probably missed a few.
2) Never again!

*amazing*

Wow, I can't believe you tabbed that out so quickly...

You got all the notes correctly (I think..), however many of the positions and starting points are wrong. For example, the main C should be played at the 5th position starting on the low E string, hence the markings V and 6-----| in the notation I have. It's not a huge deal but it makes a difference in timbre. I dunno if you want to take these things into considerations andn make the changes but it'll fix some problems such as fingering, like you said, to become easier and more fluid.

But still, thanks!

...modes and scales are still useless.


Quote by PhoenixGRM
Hey guys could you spare a minute to Vote for my band. Go to the site Search our band Listana with CTRL+F for quick and vote Thank you .
Quote by sam b
Voted for Patron Çıldırdı.

Thanks
Quote by PhoenixGRM
But our Band is Listana
Last edited by Xiaoxi at Dec 9, 2008,
#118
Quote by NaivexLi
the opning to Jingle Bells made me laugh out loud, not even kidding.


You're not the only one! That intro is hilarious!
------------------
#119
^ Jingle bells, was by far, one of my favrites, besides Fairytale of New York.

I need to get one of my songs on a UG album soon.... =[

Any other "special" albums? I don't think my stuffs good enough to get on UG album 3. Or 4, if there is one...
BACK LIKE A HEART ATTACK
#120
My Favorite - Santa Claus is coming home for Christmas. They are all amazing though! Great Job!