#1
I am just learning this for a beginner song.

So this is the main riff here.


 
D|----------------------------------------------------------------------------
A|----------------------------------------------------------------------------
G|--2---2---2------2---2---2-------3---3---3------3---3---3-------------------
D|--0---0---0------0---0---0-------0---0---0------0---0---0-------------------
A|--5---5---5------5---5---5-------5---5---5------5---5---5-------------------
D|-----------------------------0------------------------------0---------------
 
D|---------------------------------------------------------------------------
A|---------------------------------------------------------------------------
G|--4---4---4------4---4---4-------5---5---5------5---5---5------------------
D|--0---0---0------0---0---0-------0---0---0------0---0---0------------------
A|--5---5---5------5---5---5-------5---5---5------5---5---5------------------
D|-----------------------------0------------------------------0--------------
 
D|---------------------------------------------------------------------------
A|---------------------------------------------------------------------------
G|--7---7---7------2---2---2-------3---3---3---------------------------------
D|--0---0---0------0---0---0-------0---0---0---repeat------------------------
A|--5---5---5------5---5---5-------5---5---5---------------------------------
D|-----------------------------0---------------------------------------------

So how exactly should my fingering on the frets be during this?

I think I got the first couple down, but how do I go from 4th fret to 5th fret to 6th fret. like below.

D|---------------------------------------------------------------------------
A|---------------------------------------------------------------------------
G|--4---4---4------4---4---4-------5---5---5------5---5---5------------------
D|--0---0---0------0---0---0-------0---0---0------0---0---0------------------
A|--5---5---5------5---5---5-------5---5---5------5---5---5------------------
D|-----------------------------0------------------------------0--------------

D|---------------------------------------------------------------------------
A|---------------------------------------------------------------------------
G|--7---7---7------2---2---2-------3---3---3---------------------------------
D|--0---0---0------0---0---0-------0---0---0---repeat------------------------
A|--5---5---5------5---5---5-------5---5---5---------------------------------
D|-----------------------------0---------------------------------------------


If you could, use these numbers and let me know which finger should be on the frets.
THANKS!

Index - 1
Middle - 2
Ring - 3
Pinky - 4
#2
If you're looking for the most comfortable way I'd probably say keep the ring finger on the A string and your index finger on the G string until you get to x,5,0,5,x,x where I'd probably swap my index finger onto the A string and my middle finger on the G string, and then either your ring or pinky finger on the 7th fret at the end of the run.
Quote by Mia (Pulp Fiction)
Why do we feel it's necessary to yak about bullsh*t in order to be comfortable?

That's when you know you found somebody special. When you can just shut the f*ck up for a minute, and comfortably share silence.

RateYourMusic