#1
I've been learning Metallica's "That Was Just Your Life". Sweet song, and I've got it all down except for the solos.. The first solo is too much for me haha, but the dual solo sounds easy enough. So I looked at it, but.. it seems like it requires pulling off and vibratos of open notes.. How's that possible? A piece of it is here:

Dual Solo: 5:51
Guitar I:
e|-------------------------------------------------------------------------|
B|-------------------------------------------------------------------------|
G|--0-0h2p0/4~~2-0---------------------------------------------------------|
D|-----------------0~~-/4-4--2-0------/5-5-5-7-5------------7-7-7h9p7------|
A|-------------------------------0~~-------------/5-5-5-7-5-----------7-9~-|
E|-------------------------------------------------------------------------|

Guitar II:
e|----------------------------------------------------------0-0-0h3p0------|
B|--0-0h3p0/5~~------------------------------------------------------------|
G|------------/4-2----/4~~~-2-0-------/4-4-4-7-4----------------------4\2~-|
D|-----------------5~~----------0~~~-------------/4-4-4-7-4----------------|
A|-------------------------------------------------------------------------|
E|-------------------------------------------------------------------------|
#3
wammy bar
but if you dont have one play the 5th fret on the string below it and vibrato that cus its the same note this works on all but the g u half to use the 4th fret on that 1
pro tools operator certified
agile in-ceptor 727
gibson:les-paul studio
fender:strat
ibanez:prestiege s2170se s520ex
esp:ec-1000vb
splawn nitro kt88s
genz-bends g-flex

Quote by Punkismygod
U sure u want a floydrose? those things will make your nerves explode
#5
I don't see where the question is with the pull-offs. Pull off from the fretted note to the open string.

The vibrato could be a behind-the-nut bend or a vibrato bar (the latter being the more likely option seeing as how this is Metallica).
Quote by dudetheman
So what? I wasted like 5 minutes watching DaddyTwoFoot's avatar.


Metalheads are the worst thing that ever happened to metal.
#6
Oh right a whammy bar. I completely forgot about that haha. Crap, well I'll try those substitute notes anyway thanks a lot man I'll be able to go to bed satisfied haha.
#7
Oh sorry, I was getting it mixed up with another tab I think.. A Beatles song I think. Anyway yeah so just the open vibrato was the problem. Thanks for all the help everyone.