#1
Q E E E E E E Q E E E Q. W
---------------------------|--------------------------|---------------------|
---------------------------|--------------------------|--19~----------------|
-------------4S--6h--7--6--|----------------<>6~------|---------------------|
--5------------------------|--7-----------------------|---------------------|
--5------------------------|--7-----------------------|---------------------|
--3----3--3----------------|--5----5--5--5------------|---------------------|

i got this from canon rock tab and couldn't find how to play it.
#2
Quote by Extraordinairy
Q    E  E  E   E   E  E     Q    E  E  E    Q.          W                  
---------------------------|--------------------------|---------------------|
---------------------------|--------------------------|--19~----------------|
-------------4S--6h--7--6--|----------------<>6~------|---------------------|
--5------------------------|--7-----------------------|---------------------|
--5------------------------|--7-----------------------|---------------------|
--3----3--3----------------|--5----5--5--5------------|---------------------


i got this from canon rock tab and couldn't find how to play it.


fixed
#3
Looking at other tabs for this song, it seems that <>6 represents |--6s--7s--9s--7--|

I think <> means something like "slide up and down"
A metal band?
Gear:
A Guitar with an LFR > Korg Pitchblack > Behringer EQ > Hardwire CM-2 Overdrive Boss SD-1 > Hardwire CR-7 Chorus>
Orange Tiny Terror >
LzR Engineering 212 cab

My other amp can run Crysis
#4
Quote by FischmungaXTR
Looking at other tabs for this song, it seems that <>6 represents |--6s--7s--9s--7--|

I think <> means something like "slide up and down"


Nah thats a different part of the song.

I think its a pinch harmonic there. Thats how I play it and it sounds right.
Quote by crazy8rgood
This, stockylachy, if i was a woman, i would want you to have my babies...

Wait...
#5
Quote by FischmungaXTR
Looking at other tabs for this song, it seems that <>6 represents |--6s--7s--9s--7--|

I think <> means something like "slide up and down"


its not that then it would be \ / not <>
#6
It means "volume swell" guys.Change the volume louder then softer.
Quote by zappp
emad I'm gonna ban you, seriously.
#7
No, in this case it means pinch harmonic... You wouldnt turn the volume up, then down, then hit the note... in this case its a pinch harmonic, idk why, but I know the song and its pinch harmonic

Also for the 4s6 7 6, what the best thing to do is pluck 4, slide to 6, hammer 7, pull off back to 6.

so properly this should be |-4s6h7p6-|
Quote by StraightxXxEdge
Quote by Truespin
you can't use a guitar to replace your lack of charm or social skills.

Worked for Malmsteen.