#1
Hey all i hear this damn song all the time and towards the end of it theres a guitar solo for about the last two minutes, can anyone of you guitar geniuses tab this bad boy?? the song: Trading places Artist: Usher
#2
I went a bit mad listening to this over and over! But here it is...


e------------------------------------------------------------------------------
B--------------------------10--10/12--x-x-x------------------x-x-x-------------
G-2/4--4/6--6/7--7/9--9/11------------x-x-x-9/11-9-7--7/9-7--x-x-x-7-9b11r9-7--
D-------------------------------------x-x-x------------------x-x-x-----------9-
A------------------------------------------------------------------------------
E------------------------------------------------------------------------------

e------------------------------------------9h10p9------9h10p9-----9h10p9h10p9h10p9------
B-x-x-x------------------------------------------10----------10-------------------10----
G-x-x-x-9/11-9-7--7/9-7--6h7p6------9p7------------11p9--------11-------------------11--
D-x-x-x-----------------------7/9-7----9-------------------------12-------------------12
A---------------------------------------------------------------------------------------
E---------------------------------------------------------------------------------------

e-9h10p9h10p9h10p9------9h10p9h10p9h10p9h10/12--10-12-12/14--17p14-------------------
B-----------------10----------------------------------------------17--17/19\17-15----
G-------------------11------------------------------------------------------------16-
D---------------------12-------------------------------------------------------------
A------------------------------------------------------------------------------------
E------------------------------------------------------------------------------------

e----------------
B------15p14-----
G-14/16-----14---
D-------------16-
A----------------
E----------------

#3
thank you soo much bro i was trying to figure out it 2 THX AGAIN!!!