#1
Noticed a decent amount of people around looking for the solo, myself included, and I decided I'd do it myself rather than wait. If some people could go look at it (it's the only one on the site, just type in bad things and click on the solo) and test it out. It obviously sounds right to my ears but I wanted some other takes on it, thanks guys.
Feed your mind.
#2
You've done it pretty well. I had a little go and came up with this;



e----------5b7p5p3------------------------------0-0-0--------
B-----------------5--4p0h4h5p0h5/7p0h7-7b8r7-5-/5-5-5/3p0----
G-4b5r4-2------------------------------------------------2p0-
D------------------------------------------------------------
A------------------------------------------------------------
E------------------------------------------------------------

e--------------------------------------------
B--------------------------------------------
G-2b3r2p0-2-0--2b3r2p0-2-0-------------------
D-------------------------2--0---------------
A-----------------------------2--0-----------
E---------------------------------2b3r2p0----



hope that's useful.