#1
Can anyone please suggest some songs for me to practice my rhythm guitar, I'm a beginner. I will greatly appreciate it, thank you.
SG
#4
There are some really easy rhythms for blues. One that seems to be popular is:
-----------------------------------
-----------------------------------
-----------------------------------
-----------------------------------
-2---2---4---4---2---2---4---4
-0---0---0---0---0---0---0---0

It sounds better if you shuffle it. If you play it with "straight eighths" you can play it like this to make it sound better:

-----------------------------------
-----------------------------------
-----------------------------------
-----------------------------------
-2---2---4---2---2---2---4---2
-0---0---0---0---0---0---0---0

You can move this up and down the bottom 4 strings. Don't know if that's explained well but you'll know what I mean when you play around with it. Hope that helps.