#2
what sort of accompiant like a travis barker soulja boy-esque sorta thing with more simple chords with distortion or more like epic guitar solo?
#3
"travis barker soulja boy-esque sorta thing with more simple chords with distortion"

exactly what i want.
Gear
------
Burny RLC-50 Les Paul Custom (Ebony)
Vintage 70s Ibanez Custom Acoustic
Vox AD50VT 2x12
Ibanez Weeping Demon WD-7
#4
KK this is realllllly simple

Verse:
E|--------------
B|--------------
G|--------------
D|--44--4-4-7v-
A|--44--4-4-7v-
D|--44--4-4-7v-

Chrous

E|-------------
B|-------------
G|-------------
D|--7--66-4--
A|--5--44-4--
D|----------4--

The verse is basically the entire song cept the chrous :p thats as simple as it gets i could try be more complex but im not in the mood atm maybe later.