#3
Smoke on the Water ...but only on the low E string
funkyducky


Icing happen when de puck come down, BANG, you know,
before de oder guys, nobody dere, you know.
My arm go comme ça, den de game stop den start up.

Quote by daytripper75
Get To Da Choppa!
#6
Stairway!!!!
"And after all of this, I am amazed...

...that I am cursed far more than I am praised."
#8
Quote by Cruel
inb4 facepalm



agreed
Quote by Stiffy Maximus
i smoke some weed and get naked. thats the way to write a good song.
#11
Sweet Child O' Mine, only the riff
Hull City A.F.C

Quote by Thrashtastic15
crunkym toy diuckl;ess ass ****igkjn ****** **** bitch ass pussy ****er douchecanoe ****** **** you s omn cnt you lieet le biutch
#12
Quote by slayer_rule_\m/
Something that defines your style, so you know if the guitar will be good for you.

But what would be the point of that?

He should play something generic so people know he's a "real" guitar player.

If he went in and played Ghost of Perdition, he'd just look odd and out of place.
#13

d|----------------
a|----------3-4--
f|----------6-7--
c|----------------
g|-0-0-0-0----
c|-1-1-1-1----
Ibanez Xiphos XPT700
Laney VH100R
Epi Les Paul (SH-1 '59 neck, SH-11 custom custom bridge)
#15
Quote by Cruel
inb4 facepalm

agreed

Just study the aspects of the guitar, such as neck thickness/contour/length/width, weight, body shape, hardware, etc. Also,
E----------------------------------------------------------
B----------------------------------------------------------
G------3------5-------------3-----6-----5-----------3----5-
D--5---3------5--------5----3-----6-----5------5----3----5-
A--5-------------------5-----------------------5-----------
E----------------------------------------------------------

E---------------
B---------------
G--3------------
D--3------5-----
A---------5-----
E--------------- 
Last edited by Pat_s1t at Dec 14, 2008,
#16
Quote by unet
Smells like teen spirit.

But make sure you learn it well first....it's really hard.

*sigh*

anyways me personally just do scales on it and improv but if you know any songs just do the songs you'd normally do.
#17
Test every fret at least twice, picking from different angles. Then play whatever you play when you first pick up your current guitar.
#18
Quote by cam_sampbell
Sweet Child O' Mine


Quote by xstax981
stairway to heaven


Quote by DirtyMakik
Smoke on the Water



Quote by goest
^Absolute. Uncompromising. 100% pure, fresh. Solid. Gold.

Quote by WCPhils
That might be my favorite shoop I have ever seen on here.



Quote by KnightBand
Yes! ****ing Yes! YOU LEGEND!!!
#22
Quote by Ackj

d|----------------
a|----------3-4--
f|----------6-7--
c|----------------
g|-0-0-0-0----
c|-1-1-1-1----

+1
#24
Hot Cross Buns...with crushing overdrive.
Quote by jetfuel495
that is one goddamn shiny mother****ing toaster you have there
Quote by Dog--
It seems the top of those waffles are burnt.
Quote by imdeth
The toast has little red arrows growing from it. Nobody wants that.

SHUDDUP AND EAT YER TOAST
#26
Quote by Drakathan

Ahaha, there is a sign in a local guitar shop here that says, right above the acoustic guitar room, "No one is allowed to play Good Riddance or Stairway to Heaven, learn some other songs."