#1
In the theme song of Halo, "Halo theme"
the tabs are

Riff 1
--------------------------------------------------------------|
--------------------------------------------------------------|
--------------------------------------------------------------|
--------9-------11-------12-------14-----14\12\11-----|
--------7--------9-------10--------12------12\10\9------|
-0-0-0---0-0-0---0-0-0---0-0-0-------------------------|

but when i listen to the song, there is something played in between these

--------9 ---------11-
--------7 ---------9---
-0-0-0-- -0-0-0-----

Its really annoying, because the song sounds too plain without it
If anyone knows, can they post a suggestion please?
#2
second guitar?
Just call me Julius, J, etc.
Taking an Internet break for a while, will come on when I can.
#3
what i do is play the chord, let it ring then strum it again and release it quickly then go on to the open notes
like so
--------------------------------------------------------------|
--------------------------------------------------------------|
----------let ring-------let ring-----------------------------------|
--------9----9-------11-----11-------
--------7----7--------9------9--------
-0-0-0--------0-0-0----------0-0-0-
Last edited by CG Man16 at Dec 14, 2008,