#3
This probably isn't exactly it, but after listening to the requested riff a couple of times, this is what I came up with after a short little jam.

Standard Tuning

hopefully this tab turns out alright....



e--------------------------------------
b--------------------------------------
g--------------------------------------
d-------7h9-7h9-----------7h9-7h9--------------------
a----7-----------------7-----------------
E-0-----------------0--------------------

e--------------------------------------
b--------------------------------------
g--------------------------------------
d-------9/11-9h11---------9/11-9h11--------------------
a----7-----------------7-----------------
E-5-----------------5--------------------


something similar to that I would imagine. Maybe try playing "A" as the root for both times, not really sure. But it is something similar to that.

Hope I could help a little bit.
Quote by C O B H C
If you want to get really technical about it..

1. Grab sticks.
2. Bang sticks on drums.


^how to play drums.


UG POKER
#5


G|---------------------------------------------------
D|---------------------------------------------------
A|-------7h9p7/5----7h9p7/5----7p5------
D|---0-0---------0-0--------0-0-----------

G|---------------------------------------------------
D|-------5h7p5-----------------------------------
A|------------5----7h9p7/5---5---5-----
D|---0-0--------0-0-----------5/7------

G|---------------------------------------------------
D|---------------------------------------------------
A|-------7h9p7/5------7h9p7-7-5h7h9-------
D|---5-5------------5-5---------------------------


G|-----------------------7/--------------
D|------7p6h7h9-----9p7h9-----------------
A|---------------------------------------------------
D|---5-5--------5-5--------------------------