#1
It goes like this, it's really simple.
It's a start though.

e------------------------------------------------------------------------------
b------------------------------------------------------------------------------
g------------------------------------------------------------------------------
d--------------5-----------5----------5-----------3-----------3----------3--
a---------6-----------6------------6---------4-----------4------------4-----
E----4-4---4----4-4---4----4-4-------2-2---2----2-2---2----2-2--------

e------------------------------------------------------------------------------
b------------------------------------------------------------------------------
g------------------------------------------------------------------------------
d--------------1-----------1----------1-----------3-----------3----------3--
a---------2-----------2------------2---------4-----------4------------4-----
E----0-0---0----0-0---0----0-0-------2-2---2----2-2---2----2-2--------

e-----------------------------------------
b------------------------------------------
g-----------------------------------------
d--------------5-----------5----------5--
a---------6-----------6------------6----
E----4-4---4----4-4---4----4-4-------
Gear :]
Washburn Nuno Bettencourt Signature Model
Some broken washburn amp :[
Getting an orange micro crush for christmas.
Mickey Mouse picks ;]

Quote by Quoteman
Would you like to buy a duck?
#2
which song is it ?
Quote by RazorTheAwesome
Lol at Bender

Quote by So-Cal

Quote by theguitarist

I got to warn you for spam though...

Quote by Shredoftheday
Nicely put good sir

I witnessed Night Of The Pear 2
#3
Quote by bender424
which song is it ?

Just something I thought up.
Haven't titled it yet.
Am i in the right subforum?
Gear :]
Washburn Nuno Bettencourt Signature Model
Some broken washburn amp :[
Getting an orange micro crush for christmas.
Mickey Mouse picks ;]

Quote by Quoteman
Would you like to buy a duck?
#4
Quote by xdsx43
Just something I thought up.
Haven't titled it yet.
Am i in the right subforum?


yes you are.
sadly, i dont have my guitar right now.
My meh gear:
ESP LTD MH-400NT
Peavey Raptor Plus EXP
Digitech RP90
Digitech Bad Monkey
Electro-Harmonix Big Muff Pi (WTS)
Crate GT15 (SHIT)

GAS:
Peavey 6505 112 combo
MXR 10-band EQ
Ibanez TS-9
Boss HR-2
Compressor (open to suggestions)
#5
Quote by JungIe
yes you are.
sadly, i dont have my guitar right now.

okay, good.
I always seem to post in the wrong one.
I don't have any recording gear. :/
Gear :]
Washburn Nuno Bettencourt Signature Model
Some broken washburn amp :[
Getting an orange micro crush for christmas.
Mickey Mouse picks ;]

Quote by Quoteman
Would you like to buy a duck?
#6
I don't even know what key the song is in :/
Gear :]
Washburn Nuno Bettencourt Signature Model
Some broken washburn amp :[
Getting an orange micro crush for christmas.
Mickey Mouse picks ;]

Quote by Quoteman
Would you like to buy a duck?
#8
Quote by Quik Axe Player
I have it as being in Db major.

alright, thanks :]
Gear :]
Washburn Nuno Bettencourt Signature Model
Some broken washburn amp :[
Getting an orange micro crush for christmas.
Mickey Mouse picks ;]

Quote by Quoteman
Would you like to buy a duck?
#9
I need to go think up a verse and chorus.
Gear :]
Washburn Nuno Bettencourt Signature Model
Some broken washburn amp :[
Getting an orange micro crush for christmas.
Mickey Mouse picks ;]

Quote by Quoteman
Would you like to buy a duck?
#11
Quote by voidSkipper
I really like that kind of chord. Wrote quite a few jam tracks using them.

I was just fooling around with power chords :]
and then i was just modifying them and picked around, i guess.
Gear :]
Washburn Nuno Bettencourt Signature Model
Some broken washburn amp :[
Getting an orange micro crush for christmas.
Mickey Mouse picks ;]

Quote by Quoteman
Would you like to buy a duck?