#1
--9---------9----14-9-------9-10-9-14-9----|
----10-9-10---10------10-12-------------10-|
-------------------------------------------|
-------------------------------------------|
-------------------------------------------|
-------------------------------------------|


--14----------14----19-14-------14-15-14-19-14----|
-----15-14-15----15-------15-17----------------15-|
--------------------------------------------------|
--------------------------------------------------|
--------------------------------------------------|
--------------------------------------------------|

 
--------------------12----16-14-16-12----12-------|
--12----------12-------12-------------12----12----|
-----13-11-13----13----------------------------13-|
--------------------------------------------------|
--------------------------------------------------|
--------------------------------------------------|
	--------------------17----21-19-21-17----17-------|
--17----------17-------17-------------17----17----|
-----18-16-18----18----------------------------18-|
--------------------------------------------------|
--------------------------------------------------|
--------------------------------------------------|

 
-------------------10----14-12-14-10----10-------|
--10---------10-------10-------------10----10----|
-----11-9-11----11----------------------------11-|
-------------------------------------------------|
-------------------------------------------------|
-------------------------------------------------|
	--------------------14----19-17-19-14----14-------|
--15----------15-------15-------------15----15----|
-----16-14-16----16----------------------------16-|
--------------------------------------------------|
--------------------------------------------------|
--------------------------------------------------|

 
-----------------9---13-11-13-9---9------|
--9---------9------9------------9---9----|
----10-8-10---10----------------------10-|
-----------------------------------------|
-----------------------------------------|
-----------------------------------------| 	
--9---------9----14-9-17-16-14----------------|
----10-9-10---10---------------17-16-14-------|
----------------------------------------16-14-|
----------------------------------------------|
----------------------------------------------|
----------------------------------------------|

 
-----------------9---13-11-13-9---9------|
--9---------9------9------------9---9----|
----10-8-10---10----------------------10-|
-----------------------------------------|
-----------------------------------------|
-----------------------------------------|
	

               

--9-----------9----14-9-17-16-14---------- -- 17S-----|
----10-9-10---10--------------- ----17-16-14---------|
------------------------------------------------|
------------------------------------------------|
------------------------------------------------|
------------------------------------------------|



http://www.ultimate-guitar.com/tabs/r/racer_x/scarified_ver2_tab.htm
Could anyone tell me what the fingering is for this bit is?
I cant quite nail it, also picking patterns would be useful.
Thanks, and sorry for choosing such a hard song.


Quote by Spoonman69
Rap is music,far better than metal for example. id much rather hear about hoes and anal sex than dragons and supressed homosexuality.
#2
Oh yeah, its 0:40 - 0:57 on the track.


Quote by Spoonman69
Rap is music,far better than metal for example. id much rather hear about hoes and anal sex than dragons and supressed homosexuality.
#3
1 - That's quite a long section, do you really want someone to plan out the fingering for all of it?

2 - Figure it out yourself, it'll do you good.
R.I.P. My Signature. Lost to us in the great Signature Massacre of 2014.

Quote by Master Foo
“A man who mistakes secrets for knowledge is like a man who, seeking light, hugs a candle so closely that he smothers it and burns his hand.”


Album.
Legion.
#4
Quote by Zaphod_Beeblebr
1 - That's quite a long section, do you really want someone to plan out the fingering for all of it?

2 - Figure it out yourself, it'll do you good.

--------------------12----16-14-16-12----12-------|
      --12----------12-------12-------------12----12----|
        -----13-11-13----13----------------------------13-|
--------------------------------------------------|
--------------------------------------------------|
--------------------------------------------------|

Thats really the bit im stuck on when it has the 4 ' -12-'s .
I just need some tips for that bit really.


Quote by Spoonman69
Rap is music,far better than metal for example. id much rather hear about hoes and anal sex than dragons and supressed homosexuality.
#5
Learn the way to play such pieces first. Check out vids of Gilbert on how to pick such patterns.

The "Re-incarnation of Plato" Award 2009
(most intelligent)
The "Good Samaritan" Award 2009 (most helpful)

[font="Palatino Linotype
Who's Andy Timmons??
#6
Quote by hugh20


--------------------12----16-14-16-12----12-------|
--12----------12-------12-------------12----12----|
-----13-11-13----13----------------------------13-|
--------------------------------------------------|
--------------------------------------------------|
--------------------------------------------------|

Thats really the bit im stuck on when it has the 4 ' -12-'s .
I just need some tips for that bit really.


Rolling ftw.
R.I.P. My Signature. Lost to us in the great Signature Massacre of 2014.

Quote by Master Foo
“A man who mistakes secrets for knowledge is like a man who, seeking light, hugs a candle so closely that he smothers it and burns his hand.”


Album.
Legion.
#7

  M  R  I  R  M  R  I  I  P  R  P  I  I  I  I   M
--------------------12----16-14-16-12----12-------|
--12----------12-------12-------------12----12----|
-----13-11-13----13----------------------------13-|
--------------------------------------------------|
--------------------------------------------------|
--------------------------------------------------|


M = Middle
R = Ring
I = Index
P = Pinky

thats how i would do it. as for picking patterns, paul likes outside picking.

if you really can't figure it out for yourself though, do you really think youre capable of playing it? I'm not trying to be mean.

edit: the 14 in the 16-14-16-12 part could be done with either the ring or middle finger.
Last edited by SpeedLives at Dec 17, 2008,
#8
There's a much easier way to play this lick.

have you tried the guitar pro or power tab versions or perhaps version 3?

I think the power tab version starts the f#m arpeggio on the g string and it's much easier for me than te one you posted.
hue