#1
Anyone know the name of this tune,my tab is terrible(i think) but if you know it you'll no doubt recognise it. Mate of mine played it for me but doesnt know the name.

Sorry again if the tab is crap,first time i've tried to type one out

Just the intro..

E[-----------0-----------3--|-3s-2--------2-----------|
B[--------0-----------------|----------1--------1p-0--|
G[-----0--------------------|-------2-----------------|
D[--2-----------------------|-------------------------|
A[--------------------------|-0-----------------------|
E[--------------------0-----|-------------------------|

E[-----------2---2-2------0-|-----7-----------5-------|
B[--------0-------------0---|---0---0---0---0---0---0-|
G[-----2--------------0-----|-------------------------|
D[--------------1--2--------|-5-------5---4-------4---|
A[--2-----------------------|-------------------------|
E[--------------------------|-------------------------|

E[------3-----------2-------|
B[----0---0---0---0---0-----|
G[--------------------------|
D[--2-------2---1-----------|
A[-----------------------2--|
E[--------------------------|


Dyin to learn the full tune,thx in advance!!
#2
Bits of it sound familiar but I really have no idea.
I take it the piece is classical music rather than the intro to a metal track or something?
Quote by Mia (Pulp Fiction)
Why do we feel it's necessary to yak about bullsh*t in order to be comfortable?

That's when you know you found somebody special. When you can just shut the f*ck up for a minute, and comfortably share silence.

RateYourMusic
#3
Quote by Andrewbiles
Bits of it sound familiar but I really have no idea.
I take it the piece is classical music rather than the intro to a metal track or something?


Yeh sorry,probably would'a helped if i mentioned that...has a classical/spanish feel to it.