#1
hey guys, im just starting to work on my sweep picking and i was wondering if anyone had some suggestions as far as scale patterns or other practice techniques that would be helpful...thanks
#2
They're just fast arpeggios played with a flowing motion of the pick, an arpeggio is just a series of chord tones played separately. I say to start with the simpler 3 and 4 note patterns. Remember to only play as fast as you can play accurately.

---------------7--h-12--p--7-------------------
----------8-----------------------8---------------
------9--------------------------------9----------
---------------------------------------------------
---------------------------------------------------
---------------------------------------------------

Then, when you feel more comfortable, add the bottom end to that E minor arpeggio

---------------7--h-12--p--7----------------------------------
----------8-----------------------8------------------------------
------9--------------------------------9-------------------------
---------------------------------------------9--------------------
---------------------------------------------------10-----7------
-------------------------------------------------------------------

And it's really up to you to choose where to begin and end on these things.

Hope it was helpful
#3
What I did was starting with some Am 6 string sweeps.
-----------------5^8/12^8
--------------5----------------10
------------5------------------------9
----------7----------------------------10^7
-------7---------------------------------------7
-5^8----------------------------------------------8
Do these really slow untill it goes decent, then try an Am 3 string.
---------12^17^12
----13----------------13
14-------------------------14
When I did it this way I could do the 3 string sweep perfectly in one go.

Also some 2 string sweeps that I use to play fast arpeggios
-15^12------12^|
----------12-------|
Repeat it a lot and do it with downstrokes, during the hammer on pull off you have time to position your hand back to the top and hit the 2 notes again.
Guitasr:
Cort KX-Custom
ESP LTD M-200FM
Amp:
Engl Powerball
Misc:
Focusrite Scarlet 2i4
Last edited by pinguinpanic at Dec 18, 2008,
#5
I just realized that i never knew what Sweet Picking is.. What is it? xD Exactly? :P
FUCK YOU ALL!

666 BLACK METAL HOLOCAUST!!!!!
#6
I'm having trouble reaching from the 7 to the 12, any tips?
"Lets have some more fun, with musics!" - Skwisgaar

As jy dit kan lees, dan is ek fokken trots op jou.

O o
________________________
| IMMA FIRIN' MAH LAZOR!!!
\_¯¯¯¯¯¯¯¯¯¯¯¯¯¯¯¯¯¯¯¯¯¯¯¯
#7
Lol, the best thing is for you to go on the tube and look up Yngwie Malmsteen's Arpeggios from Hell or Batio's No Boundaries ( of which portions are almost entirely sweep picked ). After that you can focus on the exact definition and technical aspects of it by looking up the gazillions of lessons on sweep picking on this site itself.

As far as answering the question posted by nick up there; I would say use your ears. Work horizontally along the strings first. Pick a key and horizontally pick out the notes of the arpeggio and then starting from each note of the scale construct an arpeggio, that can be sweep picked, to the highest note you can go without shifting positions. But the beauty of truly implementing sweeping comes from actually shifting positions and using those notes you learned horizontally to connect each sweep picking pattern together. The master of this was Jason Becker. Listen to him and try and use your ears to pick out some of his arpeggiated patterns. Of course if you lack the theoretical knowledge to do any of what I said you're better off learning a few basic patterns to keep you entertained and working on some serious theory; always remembering to use your ears, however.
#8
Quote by Wolfie7279
I'm having trouble reaching from the 7 to the 12, any tips?



Use your index finger on the 7th fret and the pink on the 12th. You shouldn't have a problem using those fingering. I'm assuming you're talking about the arpeggio pattern mentioned a few posts above.
#11
on the 7 to 12, make sure your thumb is on the back of the neck. It's also very crucial for good technique.