#1
I would be forever indebted to anyone who has a proper tab to this song. It's off Jimmy Page's Outrider album. The one listed here on ultimate guitar is completely off.
There are two good videos on youtube w/ closeups of the peoples fretting hand while it's played, I just can't follow it due to my video player on my laptop being screwed up.
It's a beautiful song and fairly simple...I'm sure someone could work out at least the intro quickly.
Thank you!!!
#2
just the intro:

e|-----0----------------------------------------------------------------------|
B|-----0---------------------------------------0------------------------------|
G|-----2----4--5--7/9-----12---10\--------0----------------0--------------| (2)
D|-----2----5--7--9/10----10---10\-------3--------------------3-----------|
A|-----0-------------------------------------------------3----------------------|
E|----------------------------------------1-----------1------------------------|

e|-----0----------------------------------------------------------------------|
B|-----0---------------------------------------0------------------------------|
G|-----2----4--5--5/7---5---4\-------------0----------------0--------------|
D|-----2----5--7--7/9---7---5\-------------3--------------------3-----------|
A|-----0-------------------------------------------------3----------------------|
E|----------------------------------------1-----------1------------------------|

e|-----0----------------------------------------------------------------------|
B|-----0---------------------------------------0------------------------------|
G|-----2----4--5--7/9-----12---10\--------0----------------0--------------|
D|-----2----5--7--9/10----10---10\-------3--------------------3-----------|
A|-----0-------------------------------------------------3-------------3---------|
E|----------------------------------------1-----------1------------------------|

e|-------------------------------------------------|
B|----------------------------------1---1---------|
G|----------------------------------2---2--------|
D|----------------------------------0---0--------|
A|-------------------3~-2-----------------------|
E|----3------2--3----------3---------------------|
#3
I can't thank you enough for tabbing out the intro!
I've been searching for this for ages!
Thank you!!! !!!!