#2
Joe,

I rewrote this after John gave me his CD. It doesn't paste well in this box. I will email to john and he can forward it on to you.


Pink Floyd - Mother

extended solo by Robert Gordon 1/25/09


|----------------------------------------------8--10-10b12d10~---8-
|---------------------10b12d10~--8--10b13---8----------------------
|----4-4-4-4-4-----------------------------------------------------
|----5-5-5-5-5-----------------------------------------------------
|----5-5-5-5-5-----------------------------------------------------
|----3-3-3-3-3-----------------------------------------------------

|--15b17---15b17--15~-13-15-15b17d15~----15b17---15b17d15~-13p12h13p12--------
|-----------------------------------------------------------------------13----
|--------------------------------------------------------------------------12~
|-----------------------------------------------------------------------------
|-----------------------------------------------------------------------------
|-----------------------------------------------------------------------------

|--------12-15--15b17---15b17d15~--13p12-------------------------------------------------
|-----11----------------------------------13-------------6-8-8b10--8b10--8~--6~--------6b8
|--12----------------------------------------14-12-----------------------------9-7-5------
|--------------------------------------------------14~------------------------------------
|-----------------------------------------------------------------------------------------
|-----------------------------------------------------------------------------------------

sweep

|-------------------------------------------------------------------------------------------
|--3-5-5b7---5b7d5~-3--5b8---3-5--5b7---5b7d5~-3--5b8----3-5--5b7--5b7--5~-3--5~------------
|------------------------------------------------------------------------------------5-5p4--
|-----------------------------------------------------------------------------------------5~
|-------------------------------------------------------------------------------------------
|-------------------------------------------------------------------------------------------
Last edited by FlaskGordon at Jan 25, 2009,