#1
Is this worth continuing and making it longer?

e|-0-2-3p2-0----2-2--3-3--5-5-3-2--|
B|--------------0----0----0-----0--|
G|---------------------------------|
D|-0------------2----2----2-----2--|
A|---------------------------------|
E|---------------------------------|

|-7-8--10-8-7----2-3-2-0--5-7-2--3--|
|-0--------------0-----0------3--3--|
|----------------------0------0--0--|
|-7--------------2-----2------2--2--|
|-----------------------------------|
|-----------------------------------|


Or is it any good at all?
#3
erm we dont get you text tab folks round here...
*looks suspiciously* go back to your own country!
lol not really

tho u would get more replies if you had ptab/guitarpro
'If I were not a physicist, I would probably be a musician. I often think in music. I live my daydreams in music. I see my life in terms of music.' Albert Einstein