#1
Here is the basic chord structure, but I dont think it's completely correct. Also, I cant get the strumming right. My ear can't place the notes. Here is the song and the tab I have.

http://www.youtube.com/watch?v=uh_51XKA04A&feature=related

*TAB IS NOT MY WORK. I TAKE NO CREDIT

The Old Mission:

Standard Tuning

T = use thumb to note

(with many strumming patters, palmmuting, and finger picking throughout)

Verse:

||--3------------------2-------------------||
||--3--------0--------2-------------------||
||--0--------0--------4-------------------||
||--0--------2--------4-------------------|| X2
||--2--------2--------2-------------------||
||--3--------0----------------------------||

||--3------------------2-------------------0------------------------||
||--3--------0--------2-------------------1------------------------||
||--0--------0--------4-------------------0------------------------||
||--0--------2--------4-------------------2------------------------||
||--2--------2--------2-------------------3------------------------||
||--3--------0------------------------------------------------------||


Chorus :

||--0------------------------------------0------------------3------2------||
||--1-----------------0------------------1------------------3------3------||
||--0-----------------0------------------0------------------0------2------||
||--2-----------------2------------------2------------------0------0------||
||--3-----------------2------------------3------------------2------0------||
||--------------------0--------------------------------------3------2T-----||


||--0-----------------3------2-------0-------------------------------------||
||--1-----------------3------3-------0-------------------------------------||
||--0-----------------0------2-------0-------------------------------------||
||--2-----------------0------0-------2-------------------------------------||
||--3-----------------2------0-------2-------------------------------------||
||--------------------3------2T------0-------------------------------------||


NOTE:

(The very last chorus is little different. The second chord, usually E minor, is replaced with a G )

||--0-----------------3------------------0------------------3------2------||
||--1-----------------3------------------1------------------3------3------||
||--0-----------------0------------------0------------------0------2------||
||--2-----------------0------------------2------------------0------0------||
||--3-----------------2------------------3------------------2------0------||
||---------------------3-------------------------------------3------2T-----||


||--0-----------------3------2-------0-------------------------------------||
||--1-----------------3------3-------0-------------------------------------||
||--0-----------------0------2-------0-------------------------------------||
||--2-----------------0------0-------2-------------------------------------||
||--3-----------------2------0-------2-------------------------------------||
||--------------------3------2T------0-------------------------------------||
Amp: B-52 AT100 212
Guitar: Parker P-44
Effects: Korg Tuner