#1
Can't really find any tabs for this song anywhere on the internet. I would appreciate any suggestions as to how this song goes, thanks.
#2
Guitar I
G7
E-|---------------3--|
B-|------------3-3---|
G-|------------3h4--o|
D-|------------3----o|
A-|------------X-----|
E-|--3---1-2-3-3-----|

Guitar II

E-|------------------|------------------
B-|------------------|------------------
G-|-----0-0-0-0-0----|------------------
D-|------------------|-----0-0-0-0-0----
A-|------------------|------------------
E-|------------------|------------------


A7 -> G7 dropdown

E-|-----b^9-----b^7--|
B-|----b^8-----b^6---|
G-|---b^9-----b^7----|
D-|------------------|
A-|------------------|
E-|------------------|

Chorus

E-|--16--19----------|--16--19----------|------------------|--16--19----------
B-|---------15--17---|---------15--17---|--17--19--15--13--|---------15--17---
G-|------------------|------------------|------------------|------------------
D-|------------------|------------------|------------------|------------------
A-|------------------|------------------|------------------|------------------
E-|------------------|------------------|------------------|------------------
I'm charged up! Don't put me down . . .

This is at least what I've come up with. If anyone has an idea as to the other parts that are mixed into the fray, chords and solos, send em this way and we'll have us a good ol' fashioned tabbin'.