#1
how can i make my playing more buckethead-ish?

also what scale does he use for the pre-solo in soothsayer?

the bit that goes

----------------------------------11-11----------------------
---------13-13-14-14-11-11---------14-14-13-13-14-14
-10-10--------------------------------------------------------
---------------------------------------------------------------
--------------------------------------------------------
--------------------------------------------------------

also what other scales can i use if im soloing in em pentatonic?
Quote by Vauxite
Lots of lulz were produced, thankyou good sir
#3
Nothing can. You'll never emulate him.

He uses natural minor scales though. The occasional melodic minor.
#4
Well, I suggest practicing really hard for really long time to get that level of technique. That bit is in F minor:

-------------------------11-11-------------------|
-------13-13-14-14-11-11-------14-14-13-13-14-14-|
-10-10-------------------------------------------|
-------------------------------------------------|
-------------------------------------------------|
-------------------------------------------------|

-------------------------------------------------|
-11-11-13-13-------------------------------------|
-------------10-10-13-13-11-11-10-10-11-11-------|
-------------------------------------------11-11-|
-------------------------------------------------|
-------------------------------------------------|

--------------------------------11-11-------------|
-------11-11-13-13-------131313-------13-13-14-14-|
-10-10-------------10-10--------------------------|
--------------------------------------------------|
--------------------------------------------------|
--------------------------------------------------|

-------------------------------------------------|
-13-13-------------------------------------------|
-------13-13-10-10-11-11-13-13-11-11-10-10-------|
-------------------------------------------11-11-|
-------------------------------------------------|
-------------------------------------------------|
Quote by Johnljones7443
my neew year reslosutions are not too drikn as much lol.

happy new yeeae guyas.
#5
to darTHie,

i can play it really well with a metronome at about t=150-200
Quote by Vauxite
Lots of lulz were produced, thankyou good sir
#6
Whole song? Or that pre-solo part?

Well, it's hard to emulate someone's style. Even harder to describe someone's style through words. I recommend listening and learning many Buckethead songs...
Quote by Johnljones7443
my neew year reslosutions are not too drikn as much lol.

happy new yeeae guyas.
#7
begining to end of pre-solo cant find rest of it i dont want to completely emulate i just wanna be able to pull off a couple of buckethed styled licks or improvisation
Quote by Vauxite
Lots of lulz were produced, thankyou good sir
#8
Practice, Live, And Breath Buckethead. Get all the same equipment he uses, get a KFC Funeral Bucket, Quit your job, and practice all day untill your as good as him.

Even then though, I doubt you can make it sound like the actual song. Everyone has their own style, and Bucketheads is very unique.
#9
Quote by wigzwamz
begining to end of pre-solo cant find rest of it i dont want to completely emulate i just wanna be able to pull off a couple of buckethed styled licks or improvisation


Study some of the bucket's songs then, Notice the intervals and licks he likes. Maybe some Paul Gilbert, as he taught Buckethead for a period of time.
#10
See the Buckethead Backyard Solo and you'll see a what improvising for buckethead is like.

Learn how to do 7 fingered tapped augmented arppegios and Aeolian legato runs all at rediculous speeds combined with complex musical structures and rhythms. Also, be sure to find theme songs that song cool and make bitchin renditions of them. Fingerpickin is a must as well.

1980s Ibanez RG470
Epiphone G400
Peavey Vypyr 30
Vox DA5
Vox Cybaby Wah
Monster Cables
and Red Jazz IIIs



I donated 2020 grains of rice

http://freerice.com/index.php
#11
Quote by MulanoSG
See the Buckethead Backyard Solo and you'll see a what improvising for buckethead is like.

Learn how to do 7 fingered tapped augmented arppegios and Aeolian legato runs all at rediculous speeds combined with complex musical structures and rhythms. Also, be sure to find theme songs that song cool and make bitchin renditions of them. Fingerpickin is a must as well.



This reminded me of the John Petrucci Psycho Exercises (the dubbed one)
#12
While this thread is about Buckethead I'm currently learning "Welcome to bucket head land" (my favorite song from him)it's pretty challenging for me but I have most of it down with a few exceptions which I don't understand so here's a link : http://www.youtube.com/watch?v=1J2CI6NkOK8


How do you play the bit at 22 seconds?


http://www.ultimate-guitar.com/tabs/b/buckethead/welcome_to_buckethead_land_ver4_tab.htm

(it's the 2nd 16 note section with the 6 above it) Also what scale is it? Is it a major scale?

If it is I won't be able to tell as I only know the first position, thanks to anybody who helps me out here, this is a real good challenge for me (9 months now)

Rave
Last edited by Rave765 at Dec 25, 2008,