#1
tell me what the symbols in this solo are

i know stuff like h-hammer on
p-pull off
/and \-slide

the rest i have no idea


actual tab http://www.ultimate-guitar.com/tabs/b/black_sabbath/paranoid_tab.htm
---------------------------------------------------
---------------------------------------------------
--9^11`9-7-9~~-7-9-9p7-----------------------------
-----------------------9\7-5h7-5h7-------5---------
----------------------------------5h7~----7-7~-----
---------------------------------------------------

----------------------------------------------------------------------------
-------------------8-10-10^(12`10)-8-100^(12`10)-8-10^(12`10)-8-10-8--------
-----------7-9--7/9---------------------------------------------------9-9-9-
-----5h7/9------------------------------------------------------------------
-5h7------------------------------------------------------------------------
----------------------------------------------------------------------------

-------------12--------------------------------15^(17)-15^(17)-15^(17`15)-15p12---
-----------12--15^(17`15)-(12)-15^(17)--15p12----------------------------------15-
-7h9-9-9/14----------------------------------14-----------------------------------
----------------------------------------------------------------------------------
----------------------------------------------------------------------------------
----------------------------------------------------------------------------------


-15p12-----15p12----------------------112-------------------------------------
------15p12-----15^(17)-15p12-------12---15p12--------------------------------
-----------------------------14^(16)----------14--14p12--12-14^(16`14)-14p12--
-------------------------------------------------------14---------------------
------------------------------------------------------------------------------
------------------------------------------------------------------------------

------------------------------------------------------------------------------------
------------------------------------------------------------------------------------
-14^(16)-12h14p12--12-----------------------------------------12--------------------
-----------------14---14-14p12--12--------------------12-12h14--14-12-14-12-14\(10)-
------------------------------14---12-110-12p10--12h14------------------------------
-----------------------------------------------12-----------------------------------
Last edited by DeadWhisper at Dec 27, 2008,
#2
100^(12`10) should just be 10^(12`10), and means pluck the note at the 10th fret, bend up to the 12th, then back down to the 10th.
#3
10^(12`10)
hit the ten, bend to 12, release back to 10
If you say Randy Rhoads isn't amazing, I will hunt you down (Same for Marty Friedman)Founder of Rhoads/Friedman pm if you want in..
"guitarists have a thing, where their guitar is like an extension of their penis.." well said, ozzy
#5
^ = bend up

` = release bend to fretted note

~ = vibrato

( ) = notes to reach for in a bend
#6
Quote by blue_strat
^ = bend up

` = release bend to fretted note

~ = vibrato

( ) = notes to reach for in a bend


vibrato's are like just bending up and down alot correct?
would the ` just be like a hammer on or pull off?
14^(16) would be like bend 14 then pick 16?
#7
Quote by DeadWhisper
vibrato's are like just bending up and down alot correct?
would the ` just be like a hammer on or pull off?
14^(16) would be like bend 14 then pick 16?


' is to stop bending the string and the number after is the fret that you lower it to, no its not like hammers or pulls

14^(16) is hit 14 and bend to 16 "(14)^16" would be where you bend 14 and then pick 16 i believe.

vibrato is just kinda bouncing your finger gently against the fretted string so that it "quivers" slightly and it makes it sound prettyer

im not to sure on the first 2, i use guitar pro so i dont need to worry about little tab codes or anything anymore, i just download and play what i hear and look at the tabs on there where they all make sence
schecter hellraiser c-1 fr
GAS list...
Mesa roadster with 2/12 recto cab
PGM 301
98% of teens have been around or have had alcohol. Put this in your sig if you like bagels
#8

14^(16) is hit 14 and bend to 16 /QUOTE]
i understand everything but that
like hit 14 bend then play 16?

and 15^(17`15) is like
bend 15 while its still bent play 17 then play 15 normaly?
ps sorry for having a hard time understanding
Last edited by DeadWhisper at Dec 27, 2008,