#1
Can someone help me figure this song out. If you look it up on youtube there are good videos of him and his guitar playing. I cant figure out what chords he plays. The song is What it takes(to be your man) by Adam Gregory. Thanks!
#2
Tuning: DADGAd

I'm just gonna write the chords as if they were regular ones so we don't get confused....

Chords:
G: 555000 (sometimes 555400)
Em:222000
F:333200
D:000200
C:x32000 (or 232000)
D(II):x54000 (or 454000)


intro:
d|------------------0----------------------------0-------------------------0-----------------------0----|
A|--------------0------0---------------------0-----0------------------0------0---------------0-----0--|
G|----------0------------------------------0------------------------0------------------------0-----------|
D|-------0------------------------------0----------------------0-------------------------0--------------|
A|-------------------------------------------------------------------------------------------------------|
D|---5-------------------------5--------------------------2--------------------------2------------------|

verse:
d|------------------0----------------------------0-------------------------0-----------------------0----|
A|--------------0------0---------------------0-----0------------------0------0---------------0-----0--|
G|----------0------------------------------0------------------------0------------------------0-----------|
D|-------0------------------------------0----------------------0-------------------------0--------------|
A|-------------------------------------------------------------------------------------------------------|
D|---5-------------------------5--------------------------2--------------------------2------------------|

d|--------------------0--------------------------0-----------------------|
A|---------------0-------0-------------------0------0--------------------|
G|-----------0----------------------------0--------------------------------|
D|-------0----------------------------0-------------------------------------|
A|---------------------------------------------------------------------------|
D|----3--------------------------0-------------------------------------------|

Verse:
G Em F D

Chorus:
C D(II) G Em
C D(II) F C
Last edited by crmrz at Dec 30, 2008,