#1
s s s s s s s s s s s s s s E
|-----------------|--------------------------------|
|-----------------|--------------------------------|
4-----------------4-------------------6-8-9-8-6-5--|
4-----------------4-------------6-7-9--------------|
|-----------------|-------6-7-9--------------------|
|-----------------|-8-8-9--------------------------|
That's what I am talking about. I have only been playing for around 4 months, so this seems like the best suited thing for me to warmup on. So should I try and find something harder, or just stick with this for now?
#2
Quote by SecretAgentS
s s s s s s s s s s s s s s E
|-----------------|--------------------------------|
|-----------------|--------------------------------|
4-----------------4-------------------6-8-9-8-6-5--|
4-----------------4-------------6-7-9--------------|
|-----------------|-------6-7-9--------------------|
|-----------------|-8-8-9--------------------------|
That's what I am talking about. I have only been playing for around 4 months, so this seems like the best suited thing for me to warmup on. So should I try and find something harder, or just stick with this for now?

|-----------------|--------------------------------|
|-----------------|--------------------------------|
4-----------------4-------------------6-8-9-8-6-5--|
4-----------------4-------------6-7-9--------------|
|-----------------|-------6-7-9--------------------|
|-----------------|-8-8-9--------------------------|


lrn 2 code

and it'd be an alright practice, also have a look at this site http://www.guitarcardio.com/
#3
Honestly, anything that helps get your fret hand to work better with your pick hand and increases the dexterity of your fingers for fretting

Is good at any time in your musical life/career. If it helps improve your playing, then it's good to practice with.
Do you feel warm within your cage?

And have you figured out yet -


Life goes by?
Quote by Hydra150
There's a dick on Earth, too
It's you
#4
That Guitar Cardio site is pretty mint.

I'm definately gonna use that, so thanks.
Do you feel warm within your cage?

And have you figured out yet -


Life goes by?
Quote by Hydra150
There's a dick on Earth, too
It's you
#6
i used to use it for practice, but i haven't played yyz in about 2 months, i forgot i knew how to play it(with the exception of the solo). thank you TS for making me remember that i know yyz.
Quote by Bloodavian
Its not about the Radio its about talent, the front man has a bigger vocal range than Micheal Jackson and he can sing from heavey metal to high pitched ...No.12 on the top 20 under rated guitarists of ALL TIME...etc

1-Bloodavian 0-Forkman.

^Fail^