#4
Here's the main riff:

  Q=140
 
  Gtr I
  Q  E E Q  E Q  E E E E E E E
|---------------------------------|
|---------------------------------|
|---------------------------------|
|-------------2--2-0-2S6-6-4-4----|
|-2--2-0-2--2---------------------|
|---------------------------------|

#5
Quote by mustelafuro13
Here's the main riff:

  Q=140

Gtr I
Q E E Q E Q E E E E E E E
|---------------------------------|
|---------------------------------|
|---------------------------------|
|-------------2--2-0-2S6-6-4-4----|
|-2--2-0-2--2---------------------|
|---------------------------------|


ty