#1
goddamn, i can't figure out what notes to play on that beginning bass fill on mechanix by megadeth. the tab i have says to play it like:

-9-7---------4-5--
-----------5-------
---------2--------- (all sixteenth notes)
-----7-3----------

but that just doesnt sound right. my interpretation of it is shorter, something along the lines of:

-------------------
-2-1--------------
-----3-2-0-1-2-3--
-------------------

its a hard song to try and ear-play as the bass isnt recorded to powerful
My Rig:
Yamaha RBX 375 bass
Peavey Millenium BXP bass (won at Summer Slaughter 2010, signed by all the bands)
Eden Nemesis NC410 320w combo amp
Check out Tyrannicide, my death/thrash metal band:
http://www.myspace.com/tyrannicidemetal
#2
Sorry, I can't help.
I can barely hear the bass on the album version...
but the second line definately fits in key. Although, I can't imagine how someone could pull off the first tab at sixteenth notes at that tempo.
Quote by Hal-Sephira

We all have the rights to be mad

So does you
#4
Go by ear im not a megadeath fan so i dont know the song but trust your ear.
Yamaha TRB1006
Fender MIA jazz bass
Hora Hybrid double bass
Hartke lh 500
Ev 606L
Epiphone les paul
#5
-----------------------------------
--2-1-----------------------------
-------3-0-1---2-3---------------
-----------------------------------


That's the closest I can get.