#1
Look at this video

http://www.youtube.com/watch?v=27lNaWo-vU8&feature=related

at 5.28 she plays But i do love you of Leann Rimes and I want to play it to, I think the chords are G, F and C from the beginning until the end. But how does she play?

And sorry, I am from Sweden and my English arent so good..

I shoud be very grateful if someone helped me, Thanks!

Bye!

may you all guys live forever..
#2
Do you mean the beginning part? Or the strumming?

If u mean the beginning then refer to this tab http://www.ultimate-guitar.com/tabs/l/leann_rimes/but_i_do_love_you_tab.htm

(finger picking)
G F C
------------3---------------------1-----------------0-----
---------------0-------------1----------------------------
-----------------------------------------------0----------
-------0--------------3-----------------------------------
----------------------------------------3-----------------
-3--------------------------------------------------------
#4
Quote by YA89
Do you mean the beginning part? Or the strumming?

If u mean the beginning then refer to this tab http://www.ultimate-guitar.com/tabs/l/leann_rimes/but_i_do_love_you_tab.htm

(finger picking)
G F C
------------3---------------------1-----------------0-----
---------------0-------------1----------------------------
-----------------------------------------------0----------
-------0--------------3-----------------------------------
----------------------------------------3-----------------
-3--------------------------------------------------------



I meen the beginning part!
The finger picking dosent sound like the way she plays, unfortunately!

Thanks by thw way