#1
i noticed that in like all the Self Esteem tabs for the offspring say

e|-----------------------------------------------------|-----------------------------------------------|
B|----------------------------------------------------|------------------------------------------------|
G|--------------10101010---5--5-----5---------|------------------------------------------------|
D|-7--7-----7-10101010---5--5-----5-5555-|-3-3-3-3-3-3-3-3-3-3-3-3--55-55--7-|
A|-7--7-----7----8-8-8-8----3--3-----5-5555-|-3-3-3-3-3-3-3-3-3-3-3-3--55-55--7-|
E|-5--5-----5-------------------------------3333-|-1-1-1-1-1-1-1-1-1-1-1-1--33-33--5-|

i think it should have some minor adjustments. i changed the last part

e|-----------------------------------------------------|-----------------------------------------------|
B|----------------------------------------------------|------------------------------------------------|
G|--------------10101010---5--5-----5---------|-------------------------------------5--5-----|
D|-7--7-----7-10101010---5--5-----5-5555-|-3-3-3-3-3-3-3-3-3-3-3-3--55-55--7-|
A|-7--7-----7----8-8-8-8----3--3-----5-5555-|-3-3-3-3-3-3-3-3-3-3-3-3--53-53--7-|
E|-5--5-----5-------------------------------3333-|-1-1-1-1-1-1-1-1-1-1-1-1--3---3----5-|

does anybody agree?
Last edited by sharkfoo1 at Jan 2, 2009,
#2
...isnt this self esteem? the changes you made to the last part are correct, assuming of course its self esteem.
Guitar
Fender Alder Strat w/ SD Invader, P90
Fender Blacktop Telecaster
Ovation Celebrity
Amp
Bolt BTH-100 w/ Marshall 1960A Lead
Drums
OCDP Avalon Series w/ Zildjian Custom A/K

Psycho Circus
No Boundaries Studios