#1
So the fast part in heartbreaker, the first unaccompanied solo. Is that all alternate picking or are they pull offs? Like this:


-----8p5--7p5------5--8p5--7p5--------
------------------7-------------------7-----
---------------------------------------------
---------------------------------------------
---------------------------------------------
---------------------------------------------

or just:

-----8-5-7-5------5---8-5-7-5-------
-----------------7-----------------7-----
------------------------------------------
------------------------------------------
------------------------------------------
------------------------------------------

with very fast alternate picking? I'd like to learn all of this
Testing, Testing...Is this signature on?
#3
that part is:

-5-8-5-7------5-8-5-7------
-----------5-7------------5-7
--------------------------------
-------------------------------
-------------------------------
-------------------------------
Hola.
#4
thanks a lot, now i just need to practice
Testing, Testing...Is this signature on?