#3
Intro

e------------------------------------------------------------------------
B-5-3-5-6--5-6--10/8-8/5-5--10--8--5--3-1-3-5-3-1-0h1p0--
G-------------------------------------------------------2----------------
D------------------------------------------------------------------------
A------------------------------------------------------------------------
E-------------------------------------------------------------------------

e-------------------------------------------------------------------
B-5-3-5-6--5-6--10/8-8/5-5--10--8--5--3-1-3--------------
G-------------------------------------------4-----------------------
D-------------------------------------------------------------------
A--------------------------------------------------------------------
E--------------------------------------------------------------------


Am Dm
Pokraj Save breze male
G Am
Tvoje oci vesele
Dm
Ove noci cudno sjaje
F E Am
Mene vise ne vole.

Nije meni sto te moram
Sto te moram gubiti
Vec je meni da'l ces moci
Poslije mene ljubiti.

refren:
Dm G7
Sava tiho tece
Am
Zadnje nam je vece
E Am A
Draga ostala si sama.


Dm G7
Sava tiho tece
Am
Zadnje nam je vece
E F/Am
Draga postala si dama.

Slomile se nase grane
Vise nemam prava ja
Na te tvoje oci male
Nisi moja curica.

Nije meni sto ja necu
Vise tebe vidjeti
Vec je meni nece mi se
Nove oci svidjeti.
Rip Kylee Harris 4.13.93-11.28.08
Quote by Capt_Clarkson
tell him that he is the drummer and that his opinions are invalid

Quote by Jim Harkins
I want to die peacefully in my sleep like my grandfather. Not screaming in terror like his passengers.

Last edited by thementor at Jan 4, 2009,
#6
Quote by Code-E
Doesn't sound like the intro is right ^^^


i fixed it. it was just the way it got coppied in here.
Rip Kylee Harris 4.13.93-11.28.08
Quote by Capt_Clarkson
tell him that he is the drummer and that his opinions are invalid

Quote by Jim Harkins
I want to die peacefully in my sleep like my grandfather. Not screaming in terror like his passengers.

#7
cool ty
i think this sound more like it though

Intro

e------------------------------------------------------------------
B---0-1-3--5-6--10/8-8/5-5--10--8--5--3-1-3-5-3-1-0
G-2---------------------------------------------------------------
D--------------------------------------------------------------------
A---------------------------------------------------------------------
E-------------------------------------------------------------------------