#2
Quote by pugnapugnapugna
I can't find tabs anywhere on the into part..

Check it:

http://www.youtube.com/watch?v=SqLnsaAL7Gs
Thanks


Thanks for linking my video. Here's the tab - it's not mine. It's 100% correct.


By axehappy  -  axehappy at countrytabs.com

***************************************************************************************************
   Am       Gm     Fm    Abdim G/B   C      E/Ab Am    Fm/B Am

E-------8-7----5-3----3-1----0-------------0-------7-5--3-1-----0----
B-----10------3------1-------0----3~~---1h3--5-3/5-5-5---------1-3-1-
G----9-------3------1------------0-----0-----4----------1-1---2------
D--10-------5------3------------0-----2--------3/5-----------2-------
A------------------------------2-----3-----------------2----0--------
E-------------------------2/4----------------4-----------------------

   C9     F           Ddim      Am Abdim   Am  Fmaj7         G7
                                                              w/g bender
E------0-----------------------------------------------0------------|
B-----3-3---------0h1-----6-6/8-5------3h5-1-------0-1-1-3/5-3------|
G----3----------2---------7-7/9-5----4-4---2------2----------2brb---|
D---2---------3----------6----------3------------3-----3-3/5-3------|
A--3--------3---------3/5-------0-0--------0----3-------------------|
E---------1------------------------4---------0-1----------------------|


        C      Abdim  Am       Fm/B   Am      C9     F               Ddim   Am

E-----------0-----------7---5--3---1--0-------0-------------1----------------------
B-------1-3----5---5------5------1----1---3p1-----3-------1-----1-----6-6/8-5---5--
G-------0------4-4-------5---5--1---1---2-------3-----1h2-----2-------7-7/9-5-5----
D--------2---2--3---3/5-5--5-----------2-------2---2--3----3-3---3----6------7---7-
A---0-2-3--3-------------------2--2---0--0----3--3-------3-----3---3/5-5----0--0---
E--3-----------4--4----------------------------------1------1----------------------

   Abdim Am    Fmaj7       G/B                 C       Abdim    Am    Fm/B

E--------------------0--0---------------------------0-----------7---5-3---1--
B---3-5---1------0-1--0----2---2----------------1h3----5---5------5-----1----
G---4-------2--1-------------0---------0--------0------4-4-------5-----1---1-
D---3--3--2----3--3--3-3----0---0-------3p2p0------2----3---3/5-5--5---------
A--------0-0----3---3-3--3-3--3---0h1h2------2-3-----3----------------2--2---
E--4-4-------0-1---------------------------------------4--4------------------

   Am      C9     F               Ddim   Am     Abdim Am    Fmaj7  G/B  C

E--0-------0-------------1-----------------------------------------0----------------------
B--1---3p1-----3-------1-----1-----6-6/8-5---5---3-3h5--1------0-1---3---1---1------1-----
G----2-------3-----1h2-----2-------7-7/9-5-5-----4-4------2--1-------------0----0-----0---
D---2-------2---2--3----3-3---3----6------7---7--3------2----3--3--3------2---2-0h2--2----
A--0--0----3--3-------3-----3---3/5------0--0----------0-0----3---3--2---3--3------3---3--
E-----------------1------1----------------------4-4--------0-1----------------------------

   E             Am           E             Am             A

E---------0--------------------------0-------------------------------------------
B-------0-----3---1-0------1-------0-----3---0h1-0------1--1/2-1/2-3-5/9-5/7-5-3-
G---0h1-----1-----2---2--------0h1-----1-----2-----2-----------------------------
D---2----2-2---2--2--2---2-----2----2-2---2--2----2---2--2-1/2-1/2-4-5/7-5/7-5-4-
A------2-----2---0-0--0-0-0-0-----2-----2---0---0--0-0-0---0--0---0-0-0-0---0-0--
E--0------0-------------------0------0-------------------------------------------

   Am    Gm   Fm   Abdim C       Abdim  Am      Fm/B

E---8\---5\---3\--------------0-----------7---5-3---1--
B--10\---3\---1----5-3----1h3----5---5------5-----1----
G---9\---3\---1----4-4-4--0------4-4-------5-----1---1-
D--10\-x-5\-x-3\-x-3--3------2----3---3/5-5--5---------
A-----x----x----x--------3-----3----------------2--2---
E-------------------4------------4--4------------------

   Am      C9     F               Ddim   Am     Abdim Am    Fmaj7  G/B  C

E--0-------0-------------1-----------------------------------------0----------------------
B--1---3p1-----3-------1-----1-----6-6/8-5---5---3-3h5--1------0-1---3---1---1------1-----
G----2-------3-----1h2-----2-------7-7/9-5-5-----4-4------2--1-------------0----0-----0---
D---2-------2---2--3----3-3---3----6------7---7--3------2----3--3--3------2---2-0h2--2----
A--0--0----3--3-------3-----3---3/5------0--0----------0-0----3---3--2---3--3------3---3--
E-----------------1------1----------------------4-4--------0-1----------------------------

     Ddim   Am     Abdim  Am    Fmaj7   G/B Fmaj7  ?1 ?2  Fmaj7   G/B  ?3 (whoops, help me out)

E-------------------------------------0------------0--0---------0----------|
B-----6-6/8-5---5---3-3h5--1------0-1---3------0h1-5--2------0h1--3----2---|
G-----7-7/9-5-5-----4-4------2--1------------1-2---3--0----1-2---------0---|
D-----6------7---7--3------2----3--3--3------3--------3----3-----------3---|
A--3/5-5----0--0----------0-0----3---3--2-----3-------------3---3-2----4---|
E------------------4-4--------0-1-----------1-------------1----------------|
¤´¨留話 請留話 請在我說完後
¸.•´¸.•´¨¸.•¤¨哭泣我不在這裡 我不在那裡請在嗶一聲之後留
(¸.•´ (¸.•´ .•´(´¸.•¤´`¤下自己的秘密請在嗶一聲之後對話筒沾自喜請在嗶一聲之後對空氣唉聲嘆氣


我不在這裡 我人在哪裡 我想到哪裡¤

請在嗶一聲之後留下有聲的話題¤

請在嗶一聲之後分擔感情的問題¤


¤¤¤

Last edited by Harmonius at Jan 7, 2009,
#4
No problems.
¤´¨留話 請留話 請在我說完後
¸.•´¸.•´¨¸.•¤¨哭泣我不在這裡 我不在那裡請在嗶一聲之後留
(¸.•´ (¸.•´ .•´(´¸.•¤´`¤下自己的秘密請在嗶一聲之後對話筒沾自喜請在嗶一聲之後對空氣唉聲嘆氣


我不在這裡 我人在哪裡 我想到哪裡¤

請在嗶一聲之後留下有聲的話題¤

請在嗶一聲之後分擔感情的問題¤


¤¤¤