#1
i've been searching for the solo to this song, but i cant find it anywhere, i've already found all of the chords and stuff but nothing on the solo. it would be awesome if some one could tab it out for me. i'll link it, one with slash playing the solo and one with phil campbell playing it acousitcaly.

with slash and ozzy
http://www.youtube.com/watch?v=aQx3OHlHP3o

just lemmy and phil
http://www.youtube.com/watch?v=L_VEdra0wUE&feature=related
Quote by illuminatiano
do not go on guitar forums

there are drugs there

( and ololol there are )
#2
W
W H. S S S S H S S E Q
-------------------|-----------------------|-----------------------|
-------------------|-----------------------|-----------------------|
-------------------|-----------------------|-----------2------2----|
-------------------|-------------------2---|--4----------4-L-------|
-------------------|---------------2-4---4-|-----------------------|
-------------------|-----------------------|-----------------------|


S S E S S S S E S S T T S S S
----------2------------------------------|
------------2-5----------5---------------|
--4-2-4b--------4b-L--4b---4pbr-Lp-2-4-2-|
-----------------------------------------|
-----------------------------------------|
-----------------------------------------|


S S S S S S S S S S S S S S S S
------------------------------------------12-12-|
-----------------------------10----12b--L-------|
--4s-6------------9----9s-11----11--------------|
-------7s-9-9s-11---11--------------------------|
------------------------------------------------|
------------------------------------------------|


E S S S S E S E S S S E
-------12--------12------12------12--------------|
--12b-----12b--L----12b-----12b-----12pbr--L-10--|
-------------------------------------------------|
-------------------------------------------------|
-------------------------------------------------|
-------------------------------------------------|


Q. S S E S S S S S S Q. E E E E S S
--------------------12------------------|-------------------------------|
--12------9-12---------12---------------|--10---------------------------|
---------------11b--------11pbr--L-9----|----------9b--Lpbr--L--L--7p-6-|
-------------------------------------11-|-------------------------------|
----------------------------------------|-------------------------------|
----------------------------------------|-------------------------------|


Q S S S S S S S S S S S S S S E E S S E S S E S S
---------------------------------------|--------------------------------------|
----------------------10----10---------|------------------------10------------|
------------7---9s-11----11----11s-9---|--9---7--L--9-7-9b--9pb----9pbr--Lp-7-|
--7----7h-9---9----------------------9-|----9---------------------------------|
---------------------------------------|--------------------------------------|
---------------------------------------|--------------------------------------|


Q. E E E E S S W
------------------------------------|----------------------|
----------10pb---Lpbr---L---L--8p-7-|--7g15----------------|
--9~--------------------------------|----------------------|
------------------------------------|----------------------|
------------------------------------|----------------------|
------------------------------------|----------------------|

if you cant read that properly, i found it in the Power Tab on this website found here http://www.ultimate-guitar.com/tabs/m/motrhead/i_aint_no_nice_guy_feat_ozzy_osbourne_slash_power_tab.htm which is available with free software, unlike the Guitar Pro version on this site, the solo is correct


EDIT: if you wanna see the tab easier, copy it into notepad with standard block font
Last edited by SteamMaster at Jan 10, 2009,
#3
thanks man!
Quote by illuminatiano
do not go on guitar forums

there are drugs there

( and ololol there are )
#4
no problem, its an awesome song and i had the same trouble finding the tab myself for the solo, i was glad to help out
#5
Quote by SteamMaster

<tab>
if you cant read that properly, i found it in the Power Tab on this website found here http://www.ultimate-guitar.com/tabs/m/motrhead/i_aint_no_nice_guy_feat_ozzy_osbourne_slash_power_tab.htm which is available with free software, unlike the Guitar Pro version on this site, the solo is correct


EDIT: if you wanna see the tab easier, copy it into notepad with standard block font


Is that the solo for both?
Sounds like it's just for the first one.


And what is the chord progression in the acoustic one from 2:16 until 2:48 and all the way through phil's amazing solo?
#6
its just the Slash one, i dont think there is a one for the Phil Campbell one, but, listening to it, just play around with some blues licks, doesnt have to be note for note perfect for both versions does it, do your own thing, just, similar you know