#1
I need this in GP! I cant convert in can anyone help?

Not mine!!!!!

|----------------------------------------------------------------|
|-5---5-7-8-10--7h8-7--------------------------------------------|
|---------------------9p7-9--(then whammy bar)-------------------|
|----------------------------------------------------------------|
|----------------------------------------------------------------|
|----------------------------------------------------------------|

Chorus 1-0:39
|----------------------------------------------------------------|
|----------------------------------------------------------------|
|----9-----11-----12-----14--141211------------------------------|x2
|----9-----11-----12-----14--------------------------------------|
|----7-----9------10-----12--12109-------------------------------|
|000---000----000----000-----------------------------------------|


Versus 1-0:54 (with chorus 1 in the bg)
|-12---14---15---17----17---15---14------------------------------|
|-15^--17^--18^--20^---20^--18^--17^-----------------------------|
|----------------------------------------------------------------|
|----------------------------------------------------------------|
|----------------------------------------------------------------|
|----------------------------------------------------------------|

Versus 2-1:01 (with chorus 1 in bg)
|----------------------------------------------------------------|
|-15^--15^v15-12-------------------------------------------------|
|----------------14-14^v14-12------------------------------------|
|-----------------------------12-12-14(let ring)-----------------|
|----------------------------------------------------------------|
|----------------------------------------------------------------|

Versus 3-1:10
|----------------------------------------------------------------|
|-12-12-14-15---12-15-14-12----------12-14-12-------12-14-15-17~-|
|---------------------------14-14-------------14-14--------------|
|---------------------------------14-----------------------------|
|----------------------------------------------------------------|
|----------------------------------------------------------------|

(Starts to get faster here.)
|-------------------|------------------14------------------------|
|-17-15-14-15-14----|17-15-14----15-17---------------------------|
|----------------16-|---------16---------------------------------|
|-------------------|--------------------------------------------|
|-------------------|--------------------------------------------|
|-------------------|--------------------------------------------|

(So much whammy bar use here. You'll have to figure it out for yourself
because I dont have a whammy bar...hehe)
|-14-----17---17-17-17--14-----17----------------------------14--|
|---15--------------------15--------(Whammy bar slide down)17----|
|-----16--------------------16-----------------------------------|
|----------------------------------------------------------------|
|----------------------------------------------------------------|
|----------------------------------------------------------------|

|15--17-17---|12-14-15-12-14-15-14-12-14-12------------19-19--19-|
|------------|-----------------------------15-14-15-17------17---|
|------------|---------------------------------------------------|
|------------|---------------------------------------------------|
|------------|---------------------------------------------------|
|------------|---------------------------------------------------|

|21-19-17-----15---15-17-15-14-----------------------------------|
|---------20----17-----------------------------------------------|
|----------------------------------------------------------------|
|----------------------------------------------------------------|
|----------------------------------------------------------------|
|----------------------------------------------------------------|

Versus 4-1:32
|-15---13---15---13---15---13---15---17-18-18^v-17---------------|
|---15---13---15---13---15---13---15-----------------------------|
|----------------------------------------------------------------|
|----------------------------------------------------------------|
|----------------------------------------------------------------|
|----------------------------------------------------------------|

|-17---15---17---15---17---15---17---14-15-14--------------------|
|---17---15---17---15---17---15---17---------17-15---------------|
|----------------------------------------------------------------|
|----------------------------------------------------------------|
|----------------------------------------------------------------|
|----------------------------------------------------------------|

Chorus 2-1:39
|----------------------------------------------------------------|
|----------------------------------------------------------------|
|-9-99--12-1212---14--12-11-9------------------------------------|x2
|-9-99--12-1212---14--12-11-9------------------------------------|
|-7-77--10-1010---12--10-9--7------------------------------------|
|----------------------------------------------------------------|
After Chorus 2 Repeat Chorus 1

Versus 5-1:53
|-15---13---15---13---15---13---15---17-18-18^v-17---------------|
|---15---13---15---13---15---13---15-----------------------------|
|----------------------------------------------------------------|
|----------------------------------------------------------------|
|----------------------------------------------------------------|
|----------------------------------------------------------------|

|-17---15---17---15---17---15---17---14-15-14--------------------|
|---17---15---17---15---17---15---17---------17-15---------------|
|----------------------------------------------------------------|
|----------------------------------------------------------------|
|----------------------------------------------------------------|
|----------------------------------------------------------------|

Solo-2:01 (tons of whammy.)
not quite sure
what he does here
|------------------|-----------------|---------------------------|
|-10^~~~--10^-10^~~|-----------------|---------------------------|
|------------------|-----------------|11^~---12^~----------------|
|------------------|-----------------|---------------------------|
|------------------|-----------------|---------------------------|
|------------------|-----------------|---------------------------|

|----------------|-------------------|---------------------------|
|----------------|15^~-17-17-17--17^~|17^^v17-15----17-----------|
|-11-12-14-12-11-|-------------------|-----------14--------------|
|----------------|-------------------|---------------------------|
|----------------|-------------------|---------------------------|
|----------------|-------------------|---------------------------|

|----------------------------------------------------------------|
|-------7-7^^v7-7------------------------------------------------|
|-4-4------------------------------------------------------------|
|-2-2------------------------------------------------------------|
|----------------------------------------------------------------|
|----------------------------------------------------------------|


http://nikon.bungie.org/misc/mjolnir_mix_guitartab.html

Time on earth is like butterscotch; you really want more, even though it will probably just make you ill.



Certified lurker