#1
Okay, so I've recently discovered Protest The Hero, and am slightly obsessed at the moment.

I'm trying to learn the song Bloodmeat by them, but at around 1:22ish in the song, the guitar part starts doing some tapping stuff. The Guitar Pro tab I have doesn't really help me other than show me the notes, and I actually think it's missing some of the notes, and my ear sucks.

I really can't figure out if it's straight tapping, or what.
If anyone could help me, that'd be great. lol
#2

            T        T        T        T        T      
      S  S  S  S  S  S  S  S  S  S  S  S  S  S  S   S  
E||---------------------------------------------------|
B||---------------------------------------------------|
G||--------17-------16-12----19-12----21-12----17s-19-|
D||-----14-------12-------14-------14-------14--------|
A||--12-------10--------------------------------------|
E||---------------------------------------------------|


         T        T        T        T        T       
   S  S  S  S  S  S  S  S  S  S  S  S  S  S  S   S   
---------------------------------------------------||
---------------------------------------------------||
--------17-------16-12----19-12----21-12----17s-19-||
-----14-------12-------14-------14-------14--------||
--12-------10--------------------------------------||
---------------------------------------------------||
That's Tim's tapping thing that start at 1:22. Nothing is picked, you tap the notes marked 'T' with your picking hand and the rest you hammer with your fretting hand.

I look at it in groups of 3's. You've got 2 left hand hammers followed by a right hand tap. 5 groups of 3 with the last group having an extra note, achieved by sliding the right hand tap. Hope my interpretation/explanation makes sense.
Quote by TGautier13
Because e-cred on a sub-par 4Chan knockoff forum is what everyone strives to achieve.
We believe - so we're misled
We assume - so we're played
We confide - so we're deceived
We trust - so we're betrayed
Last edited by ramm_ty at Jan 11, 2009,