#1
There's part in the song that starts at 27 seconds and its played over rhythm guitar but i cant find a tab for it can someone tab it please?
Ibanez RG350DX
Line 6 Spider III
Cubase SX3
#2
No, the rhythm changes:


|---------------------------------|-------------------------------|
|------------------8-----6-----8~~|----------------8-----6-----8~~|
|*-5---------------8-----7-----8~~|----------------8-----7-----8~~|
|--5---------------8-----8-----8~~|----------------8-----8-----8~~|
|*-3------------------------------|-------------------------------|
|---------------------------------|-------------------------------|

|--------------------------------|-------------------------------|
|--------------------------------|-------------------------------|
|-----------------5--------------|------------------------------*|
|-----------------5-----5-----6--|-------------------------------|
|-----------------3-----3-----6--|------------------------------*|
|-----------------------3-----4--|-------------------------------|



From this tab.