#1
I absolutely love this song and have been trying to figure it out. I have it down up until after the first chorus where he starts to play runs over the chords. Any tabs on the internet including this site have been less than helpful which is why I'm posting.

For anyone who is curious about these, this is what I have:

                                   x2
e---------------------------------|-----
B------8--8--8--7--7--5--5--------|-----
G--/7---7--7--7--7--7--7--7-------|--4--
D---------------------------------|-----
A---------------------------------|-----
E---------------------------------|-----
      How much longer...

e----3-3---5-5-----------------------------------
B----3-3---5-5-----------------------------------
G----4-4---6-6-----------------------------------
D----5-5---7-7----------2-3-5-------4-6-7-----
A----5-5---7-7--------3-----------5-------------
E----3-3---5-5-----------------------------------
  Come on come on...


If it's any help, the chord progression in the verse is G C G C Em A C.
Pretty much, he starts on the root note of one chord and ends up on the root note of the next in the progression. Does anyone know how this part goes? thanks a lot.