#1
Okay so I started to learn how to play the solo for Stairway to Heaven. I've only been playing for 5 months so it was a bit of a challenge for me. But I have a question in the first part right after the bend, do you have to use alternative picking? Just a noob question from a newbie guitarist.
Last edited by manny95er at Jan 12, 2009,
#3
I don't alternate pick it...I think I play it as...

------------5-----------------------|--------------
---------------8P5----------------|-------------
7B-----------------7P5---7P5-|--------------
--------------------------7---------|-7P5--------
-------------------------------------|------8------
-------------------------------------|--------------
D........U.. D...D...U..D........D....D

although I might alternate pick the end bit....

edit: scuse the wonky tab :/
Last edited by zhilla at Jan 12, 2009,
#4
Quote by zhilla
I don't alternate pick it...I think I play it as...

------------5----------------------|--------------
---------------8P5----------------|-------------
7B-----------------7P5---7P5-|--------------
--------------------------7--------|-7P5--------
------------------------------------|------8------
------------------------------------|--------------
D U D D U D D D

although I might alternate pick the end bit....

edit: scuse the wonky tab :/



O thanks dude. The tab i had didn't say that you had to pull off thanks appreciate it.