#1
This local band called Aranda has started getting big and one of their recent songs especially. It's called Still in the Dark. Find it here, myspace.com/aranda. I'd greatly appreciate someone tabbing this. I'm not too good at tabbing acoustic songs. If you look at the video under the songs there's an electric version, I'd take either one tabbed. Thanks!!
#2
I've somewhat figured out the electric intro, but I'm still kind of lost. Anyone able to help?
#3
Aranda
Still in the Dark

Intro/Verses
e --------------00000000------
A -----1---3---00000000------
D ----2---4----00000000------ x6
G ---0---0-----44444444------
B --3---5------22222222------
E --------------00000000------

Pre Chorus
e-------------00000000-----------------------3------0-------1--------0-------
A-----1---3-00000000-----2--------1-------0------3-------1--------0-------
D----2---4--44444444-----2-(x8)--2-(x8)-0-(x8)2-(x5)-2 (x4)--0-(x8)-
G---0---0---22222222-----2--------0-------0------0-------3--------2-------
B--3---5----00000000---------------3------2-------0------3---------2-------
E------------00000000-----------------------3-------2------1---------0------

Chorus
e -0-------3-------3-------0-----------------------------------------------------------
A 0-------0-------3-------3-----------------------------------------------------------
D 0-(x8)-0-(x8)-2-(x8)-2-(x8)-----------------------------------------------------
G 2-------0-------0-------2----------------------------------------------------------- x3
B 2-------2---------------0-----------------------------------------------------------
E 0-------3----------------------------------------------------------------------------

Chorus cont.
e -00-0000—00-0000—00-0000—00-0000---------------------------------------
A 77-7777---55-5555---44-4444---33-3333---------------------------------------
D 99-9999---77-7777---66-6666---55-5555---------------------------------------
G 00-0000---00-0000---00-0000---00-0000---------------------------------------
B 00-0000---00-0000---00-0000---00-0000---------------------------------------
E 00-0000---00-0000---00-0000---00-0000----------------------------------------

theres a start have fun
ps i know thats not a normal way to do it but w/e